MUZBANK


МУЗЫКАЛЬНО-ИНФОРМАЦИОННЫЙ БАНК





GGenesis • Throwing It All Away (аккорды и текст - chords & lyrics)


430

Print

Видео «Throwing It All Away (Genesis)»

Видео клипы к песне подбираются автоматически сайтом youtube. Возможны некоторые несоответствия клипов песне.

↑ Спрятать рекламу ↑





Eb----------------------------------------------|
Bb----------------------------------------------|
Gb--12-12-12-11-7-9--7-9--12-12-12-11-7-9--7-9--|
Db----------------------------------------------|
Ab----------------------------------------------|
Eb----------------------------------------------|

Eb|-------------------------------------------|
Bb|-------------------------------------------|
Gb|-12-12-12-11-7-9--7-9-12-12-12-11-12-14-12-|
Db|-------------------------------------------|
Ab|-------------------------------------------|
Eb|-------------------------------------------|

Eb-------|
Bb-------|
Gb--11-9-|
Db-------|
Ab-------|
Eb-------|

VERSE

Play the intro, and add this to it. Play the whole thing twice.

Eb--------------------------------------------------------------------------|
Bb--------------------------------------------------------------------------|
Gb--9----11----12-12-12-11-7-9---12-12-12-11-7-9--7-9--12-12-12-11-9-7--9-7-|
Db--------------------------------------------------------------------------|
Ab--------------------------------------------------------------------------|
Eb--------------------------------------------------------------------------|

CHORUS

Eb------------------------------------------------------------------|
Bb------------------------------------------------------------------|
Gb--6---2---7-------4---2-----6---2---7-------4---2----9-----7----9-|
Db--------------5-------------------------5-------------------------|
Ab------------------------------------------------------------------|
Eb------------------------------------------------------------------|

INTERLUDE

play this twice

Eb----------------------------------------------------------------------------|
Bb----------------------------------------------------------------------------|
Gb--14-14-12-11-9-7---14-14-14-12-11-9-7---14-14-14-12-11-9-7---12-11-9-11-12-|
Db----------------------------------------------------------------------------|
Ab----------------------------------------------------------------------------|
Eb----------------------------------------------------------------------------|

ENDING

Repeat to fade

Eb|----------------------------------------------------------------------------|
Bb|----------------------------------------------------------------------------|
Gb|-12-12-12-11-7-9-7-9--12-12-12-11-7-9--7-9--14-14-14-12-11-9--12-11-9-11-12-|
Db|----------------------------------------------------------------------------|
Ab|----------------------------------------------------------------------------|
Eb|----------------------------------------------------------------------------|

SONG GOES LIKE THIS

Тональность:

Это должно быть в ТОП-листе! - Топ-лист композиций



Назад
Рекомендуем посмотреть другие песни исполнителя «Genesis»:

  • Комменты Fb ()
  • Комменты ВК



Добавить в Избранное Браузера
Сохранить здесь Очистить


x

0


+
-

+
-

-

Авторизация





Зарегистрироваться

M

Дата и время

  • 13:25:00
     

Социальные ссылки


Наши приложения

  • Muzbank App Play Market
  • Muzbank Amazon App