MUZBANK



A MOST COMPLETE BANK OF MUSIC INFORMATION

МУЗЫКАЛЬНО-ИНФОРМАЦИОННЫЙ БАНК





GGob • Everyone Pushed Down (аккорды и текст - chords & lyrics)


385

Print

Видео «Everyone Pushed Down (Gob)»

Видео клипы к песне подбираются автоматически сайтом youtube. Возможны некоторые несоответствия клипов песне.

↑ Спрятать рекламу ↑





 


FIRST TAB ive EVER MADE!!!!
I tabbed this at a different place, so all you gotta do is copy and
paste it into Microsoft Word or something and youll be all set!!

This is the song. i tabbed it out becase no one else has it!!!  enjoy, fuckers!!
E------------------------------------------------------------------------------------------------
B------------------------------------------------------------------------------------------------
G------------------------------------------------------------------------------------------------
D-6-6-6-6---8--8--8--8--8--8---6-6-----4-4-4-4----6-6---8--8--8--8--8--8---6-6---4-4-4-4---------
A-4-4-4-4---6--6--6--6--6--6---4-4-----4-4-4-4----4-4---6--6--6--6--6--6---4-4---4-4-4-4---------
D--------------------------------------------4-4-4-4--------------------------------------4-4-4-4


E-----------------------------------------------------------------------------------------------------
B-----------------------------------------------------------------------------------------------------
G-----------------------------------------------------------------------------------------------------
D---6-6-6-6---8--8--8--8--8--8---6-6-----4-4-4-4----6-6---8--8--8--8--8--8---6-6---4-4-4-4------------
A---4-4-4-4---6--6--6--6--6--6---4-4-----4-4-4-4----4-4---6--6--6--6--6--6---4-4---4-4-4-4------------
D----------------------------------------------4-4-4-4----------------------------------------4-4-4-4-
 You gotta burn 

Тональность:

Это должно быть в ТОП-листе! - Топ-лист композиций



Назад
Рекомендуем посмотреть другие песни исполнителя «Gob»:

  • Комменты Fb ()
  • Комменты ВК



Добавить в Избранное Браузера
Сохранить здесь Очистить


x

0


+
-

+
-

-

Авторизация





Зарегистрироваться

M

Дата и время

  • 19:20:38
     

Социальные ссылки


Наши приложения

  • Muzbank App Play Market
  • Muzbank Amazon App