MUZBANK


МУЗЫКАЛЬНО-ИНФОРМАЦИОННЫЙ БАНК





GGodsmack • Bad Magick (аккорды и текст - chords & lyrics)


380

Print

Видео «Bad Magick (Godsmack)»

Видео клипы к песне подбираются автоматически сайтом youtube. Возможны некоторые несоответствия клипов песне.

↑ Спрятать рекламу ↑






 


Godsmack- Bad Magick
tabbed by: me

intro x4
E---------------------------------------------------------------
B---------------------------------------------------------------
G--5-8-5--111111111111-121212121212-----------------------------
D--5-8-5--x-x-x-x-x-x---x-x-x-x-x-x-----------------------------
A--3-6-3--9-9-9-9-9-9--101010101010-----------------------------
E---------------------------------------------------------------

verse x2
E---------------------------------------------------------------
B---------------------------------------------------------------
G----------------------------6----------------------------------
D--3-6-3--3-3-4--3-6-3-x-x-x-6--3-6-3--3-3-4--3-6-3-------------
A--3-6-3--3-3-4--3-6-3-x-x-x-6--3-6-3--3-3-4--3-6-3-------------
E--1-4-1--1-1-2--1-4-1-x-x-x----1-4-1--1-1-2--1-4-1-------------

chorus x4
E---------------------------------------------------------------
B---------------------------------------------------------------
G--5-8-5--111111111111-121212121212-----------------------------
D--5-8-5--x-x-x-x-x-x---x-x-x-x-x-x-----------------------------
A--3-6-3--9-9-9-9-9-9--101010101010-----------------------------
E---------------------------------------------------------------

after chorus 1
E-----------------
B-----------------
G-----------------
D--3-3-3--2-------
A--3-3-3--2-------
E--1-1-1--0-------

verse x2
E---------------------------------------------------------------
B---------------------------------------------------------------
G----------------------------6----------------------------------
D--3-6-3--3-3-4--3-6-3-x-x-x-6--3-6-3--3-3-4--3-6-3-------------
A--3-6-3--3-3-4--3-6-3-x-x-x-6--3-6-3--3-3-4--3-6-3-------------
E--1-4-1--1-1-2--1-4-1-x-x-x----1-4-1--1-1-2--1-4-1-------------

chorus x4
E---------------------------------------------------------------
B---------------------------------------------------------------
G--5-8-5--111111111111-121212121212-----------------------------
D--5-8-5--x-x-x-x-x-x---x-x-x-x-x-x-----------------------------
A--3-6-3--9-9-9-9-9-9--101010101010-----------------------------
E---------------------------------------------------------------

after chorus 2
E-----------------
B-----------------
G----------------- let ring
D----3------------
A----3------------
E----1------------

bridge- palm muted
(gettin 

Тональность:

Это должно быть в ТОП-листе! - Топ-лист композиций



Назад
Рекомендуем посмотреть другие песни исполнителя «Godsmack»:

  • Комменты Fb ()
  • Комменты ВК



Добавить в Избранное Браузера
Сохранить здесь Очистить


x

0


+
-

+
-

-

Авторизация





Зарегистрироваться

M

Дата и время

  • 18:25:12
     

Социальные ссылки


Наши приложения

  • Muzbank App Play Market
  • Muzbank Amazon App