MUZBANK


МУЗЫКАЛЬНО-ИНФОРМАЦИОННЫЙ БАНК





GGodsmack • Bad Religion (аккорды и текст - chords & lyrics)


262

Print

Видео «Bad Religion (Godsmack)»

Видео клипы к песне подбираются автоматически сайтом youtube. Возможны некоторые несоответствия клипов песне.

↑ Спрятать рекламу ↑






 


TUNING: drop d (D-A-D-G-B-E)


     VERSE RIFF: (just play around with the open D5 chord)

    E|-------------------|-------------------------------------------|
    B|-------------------|-------------------------------------------|
    G|-------------------|-------------------------------------------|
    D|--0--0--00--0--00--|---0--0--00--0--0--00--0--0--00--0--0--00--|
    A|--0--0--00--0--00--|---0--0--00--0--0--00--0--0--00--0--0--00--|
    D|--0--0--00--0--00--|---0--0--00--0--0--00--0--0--00--0--0--00--|

     CHORUS:

    E|-----------------------------------------------------|
    B|-----------------------------------------------------|
    G|---5--55--55--55--55--55-----7--77--77--77--77--77---|
    D|---x--xx--xx--xx--xx--xx-----x--xx--xx--xx--xx--xx---|
    A|---3--33--33--33--33--33-----5--55--55--55--55--55---|
    D|-----------------------------------------------------|

    E|---------------------------------------------------|
    B|---------------------------------------------------|
    G|---5--55--55--55--55--55---------------------------|
    D|---x--xx--xx--xx--xx--xx---------0--0--00--0--00---|
    A|---3--33--33--33--33--33---------0--0--00--0--00---|
    D|---------------------------------0--0--00--0--00---|

     FILL: (after 2nd chorus)

    E|-------------------------------------------|
    B|-------------------------------------------|
    G|-------------------------------------------|
    D|-------------------------------------------|
    A|---7--7---9h7----7--7---9h7---7--5--3--2---|
    D|---7--7---9h7----7--7---9h7---7--5--3--2---|

     BRIDGE:

    E|-------------------------------------------------------------------------------|
    B|-------------------------------------------------------------------------------|
    G|-------------------------------------------------------------------------------|
    D|-------------------------------------------------------------------------------|
    A|---5---------------3-----------------------2--------------1--------------------|
    D|-------0-0--0-----------0-2-0-2-0-2--0---------0-0--0---------0-2-0-2-0-2--0---|
 

Тональность:

Это должно быть в ТОП-листе! - Топ-лист композиций



Назад
Рекомендуем посмотреть другие песни исполнителя «Godsmack»:

  • Комменты Fb ()
  • Комменты ВК



Добавить в Избранное Браузера
Сохранить здесь Очистить


x

0


+
-

+
-

-

Авторизация





Зарегистрироваться

M

Дата и время

  • 06:15:45
     

Социальные ссылки


Наши приложения

  • Muzbank App Play Market
  • Muzbank Amazon App