MUZBANK



A MOST COMPLETE BANK OF MUSIC INFORMATION

МУЗЫКАЛЬНО-ИНФОРМАЦИОННЫЙ БАНК





GGodsmack • Whatever (аккорды и текст - chords & lyrics)


244

Print

Видео «Whatever (Godsmack)»

Видео клипы к песне подбираются автоматически сайтом youtube. Возможны некоторые несоответствия клипов песне.

↑ Спрятать рекламу ↑






 


-----------------------------------------------------------------
Whatever - Godsmack
-----------------------------------------------------------------
Tabbed by: godsmackthatkid

Tuning: drop D down 1 whole step

            |--verse--------------------|
                         repeat 7 times  
e|----------|-----------10---10---10----|-----------|
B|----------|*----------13---13---13---*|-----------|
G|----------|---------------------------|-----------|
D|--5*------|---------------------------|-----------|
A|--5*------|*--0---0------------------*|--0---0----|
E|--5*------|---0---0-------------------|--0---0----|
 * fade in

play verse 8 times


pre chorus
e|------------------------------------------------------------|
B|------------------------------------------------------------|
G|-------7--------------------------7-----5-------------------|
D|-0-----7-----6--------------0-----7-----5-----5--5-----3 

Тональность:

Это должно быть в ТОП-листе! - Топ-лист композиций



Назад
Рекомендуем посмотреть другие песни исполнителя «Godsmack»:

  • Комменты Fb ()
  • Комменты ВК



Добавить в Избранное Браузера
Сохранить здесь Очистить


x

0


+
-

+
-

-

Авторизация





Зарегистрироваться

M

Дата и время

  • 05:47:11
     

Социальные ссылки


Наши приложения

  • Muzbank App Play Market
  • Muzbank Amazon App