MUZBANK



A MOST COMPLETE BANK OF MUSIC INFORMATION

МУЗЫКАЛЬНО-ИНФОРМАЦИОННЫЙ БАНК







    GGodsmack • Whatever (аккорды и текст - chords & lyrics)


    257

    Print

    Видео «Whatever (Godsmack)»

    Видео клипы к песне подбираются автоматически сайтом youtube. Возможны некоторые несоответствия клипов песне.

    ↑ Спрятать рекламу ↑






     
    
    
    Godsmack, whatever
    tabbed by crinkie, crinkie@hotmail.com
    
    tuning-|e|
           |B|
           |G|
           |D|
           |A|
           |E|
    
    Intro:  e|--------------------| then e|------|    
            B|------8--8--8-------|      B|------|     
            G|-----11-11-11-------|      G|------|  Pause  
            D|-5-5----------------| x7   D|-5-5--|    
            A|-3-3----------------|      A|-3-3--|    
            E|--------------------|      E|------|    
    
    1st verse:    And i wonder day....
                 e|--------------------|     
                 B|------8--8--8-------|      
                 G|-----11-11-11-------|       
                 D|-5-5----------------| x8     
                 A|-3-3----------------|         
                 E|--------------------|      
    
    
    1st pre-Chorus:   i will behave.......
           e|--------------------- e|------------------|   
           B|--------------------- B|------------------|   
           D|--------------------- D|------------------|   
           G|-5------------------- G|-5---3------------|  
           A|-3------4------4-4--- A|-3---1----3-3-2-2-|  
           E|--------2------2-2--- E|----------1-1-0-0-| 
    
    1st Chrous: e|------------|
                B|------------|     
                D|-----6-5----|
                G|-5-5-4-3--8-| x3
                A|-3-3------6-|
                E|------------|
    
    2nd verse:  i dont need to fanticize...   
                 e|--------------------|     
                 B|------8--8--8-------|      
                 G|-----11-11-11-------|       
                 D|-5-5----------------| x12    
                 A|-3-3----------------|         
                 E|--------------------|  
    
    2nd Pre-Chorus:
           e|--------------------- e|------------------|   
           B|--------------------- B|------------------|   
           D|--------------------- D|------------------|   
           G|-5------------------- G|-5---3------------|  x2
           A|-3------4------4-4--- A|-3---1----3-3-2-2-|  
           E|--------2------2-2--- E|----------1-1-0-0-|   
    
    
    2nd chorus:
            e|------------|       e|-----------|   
            B|------------|       B|-----------|   
            D|-----6-5----|       D|-----------|   
            G|-5-5-4-3--8-| x3    G|-5-8-8-8-8-| do all
            A|-3-3------6-|       A|-3-6-6-6-6-| this twice
            E|------------|       E|-----------|
     
    during bass solo
                e|---------|
                B|---------|
                D|---------|
                G|-5-55----|  x8  (gap between each
                A|-3-33----|
                E|---------|
    
    3rd chrorus:
            e|------------|       e|-----------|   
            B|------------|       B|-----------|   
            D|-----6-5----|       D|-----------|   
            G|-5-5-4-3--8-| x3    G|-5-8-8-8-8-| do all
            A|-3-3------6-|       A|-3-6-6-6-6-| this twice
            E|------------|       E|-----------|
    
    then finishes with this
    
            e|--------------------| then e|------|    
            B|------8--8--8-------|      B|------|     
            G|-----11-11-11-------|      G|------|   
            D|-5-5----------------| x7   D|-5-5--|    
            A|-3-3----------------|      A|-3-3--|    
            E|--------------------|      E|------|
     

    Тональность:

    Это должно быть в ТОП-листе! - Топ-лист композиций



    Назад
    Рекомендуем посмотреть другие песни исполнителя «Godsmack»:

    • Комменты Fb ()
    • Комменты ВК



    Добавить в Избранное Браузера
    Сохранить здесь Очистить


    x

    0


    +
    -

    +
    -

    -

    Авторизация





    Зарегистрироваться

    M

    Дата и время

    • 05:20:42
       

    Социальные ссылки


    Наши приложения

    • Muzbank App Play Market
    • Muzbank Amazon App