MUZBANK



A MOST COMPLETE BANK OF MUSIC INFORMATION

МУЗЫКАЛЬНО-ИНФОРМАЦИОННЫЙ БАНК





GGood Charlotte • Young And Hopeless (аккорды и текст - chords & lyrics)


480

Print

Видео «Young And Hopeless (Good Charlotte)»

Видео клипы к песне подбираются автоматически сайтом youtube. Возможны некоторые несоответствия клипов песне.

↑ Спрятать рекламу ↑





 


Song: The Young and the Hopeless
Artist: Good Charlotte
Album: The Young and the Hopeless
Track: 12

They play the song in Eb tuning,
so if you want to be able to play along with the song, tune to Eb. (I think)

Verse (play each note multiple times)
G--------------------------------------------
D--------------------------------------------
A----4-0-----4-0-----------------------------
E--0-------0---------------------------------

Pre-Chorus
G--------------------------------------------
D--------------------------------------------
A--4---7----4---7----------------------------
E----5---7----5---7--------------------------

Chorus
G--------------------------------------------
D--------------------------------------------
A-----4--0--2---------4--0--2----------------
E--0---------------0-------------------------

(there is a part where he says  

Тональность:

Это должно быть в ТОП-листе! - Топ-лист композиций



Назад
Рекомендуем посмотреть другие песни исполнителя «Good Charlotte»:

  • Комменты Fb ()
  • Комменты ВК



Добавить в Избранное Браузера
Сохранить здесь Очистить


x

0


+
-

+
-

-

Авторизация





Зарегистрироваться

M

Дата и время

  • 02:08:12
     

Социальные ссылки


Наши приложения

  • Muzbank App Play Market
  • Muzbank Amazon App