MUZBANK


МУЗЫКАЛЬНО-ИНФОРМАЦИОННЫЙ БАНК





GGorillaz • 19-2000 (аккорды и текст - chords & lyrics)


559

Print

Видео «19-2000 (Gorillaz)»

Видео клипы к песне подбираются автоматически сайтом youtube. Возможны некоторые несоответствия клипов песне.

↑ Спрятать рекламу ↑





Chords:

G A
E|---3---|---5---|
B|---3---|---5---|
G|---4---|---6---|
D|---5---|---7---|
A|---5---|---7---|
E|---3---|---5---|


Only Play these Chords Like This (You need to play them in Arpeggio Mode):

G (4 Times)
G (4 Times)
A (4 Times)
G (4 Times)

G G A G
E|---------3---|---------3---|---------5---|---------3---|
B|-----3-----3-|-----3-----3-|-----5-----5-|-----3-----3-|
G|-------4-----|-------4-----|-------6-----|-------4-----|
D|-------------|-------------|-------------|-------------|
A|-------------|-------------|-------------|-------------|
E|-3-3---------|-3-3---------|-5-5---------|-3-3---------|

Тональность:

Это должно быть в ТОП-листе! - Топ-лист композиций



Назад
Рекомендуем посмотреть другие песни исполнителя «Gorillaz»:

  • Комменты Fb ()
  • Комменты ВК



Добавить в Избранное Браузера
Сохранить здесь Очистить


x

0


+
-

+
-

-

Авторизация





Зарегистрироваться

M

Дата и время

  • 03:21:41
     

Социальные ссылки


Наши приложения

  • Muzbank App Play Market
  • Muzbank Amazon App