MUZBANK


МУЗЫКАЛЬНО-ИНФОРМАЦИОННЫЙ БАНК





GGreen Day • Burn Out (аккорды и текст - chords & lyrics)


412

Print

Видео «Burn Out (Green Day)»

Видео клипы к песне подбираются автоматически сайтом youtube. Возможны некоторые несоответствия клипов песне.

↑ Спрятать рекламу ↑





Rhytm A (2 times)
Heavy Distortion
|------------------------------------------------------------------------
|------------------------------------------------------------------------
|----------4--4-4--4-4------------4--4-4---------------------------------
|-4-4--4-4-4--4-4--4-4-4-4-4--4-4-4--4-4-2-2-2--4-4-4--4-4-2-2-2--2-2----
|-4-4--4-4-2--2-2--2-2-4-4-4--4-4-2--2-2-2-2-2--4-4-4--4-4-2-2-2--2-2----
|-2-2--2-2-------------2-2-2--2-2--------0-0-0--2-2-2--2-2-0-0-0--0-0----



Rhytm B

|----------------------------|-------------------------------------------
|----------------------------|-------------------------------------------
|-6-6-6--6-6--6-6-6-6--6-6-6-|-4-4--4-4------------------4---------------
|-6-6-6--6-6--6-6-6-6--6-6-6-|-4-4--4-4-4--4-4-4-4-4-4-4-4--2--4--4-4----
|-4-4-4--4-4--4-4-4-4--4-4-4-|-2-2--2-2-4--4-4-4-4-4-4-4-2--2--4--4-4----
|----------------------------|----------2--2-2-2-2-4-4-4----0--2--2-2----



Rhytm A (2 fois)

|--------------------------------------|------------------------|--------
|--------------------------------------|------------------------|--------
|-4--4-4--4-----------6-6-6-6-6-6-6-6-6|------------------------|--------
|-4--4-4--4-2--2-2--2-6-6-6-6-6-6-6-6-6|------------------------|--------
|-2--2-2--2-2--2-2--2-4-4-4-4-4-4-4-4-4|------------------------|--------
|-----------0--0-0--0------------------|------------------------|--------



Rhytm B (2 times) Rhytm C

|-----------------|-------------------------------------------------|----
|-----------------|-------------------------------------------------|----
|-----------------|-6-6-6-6-6-6-6-6-6-6-6-6-6-6-6-6-6-6-6-6-6-6-6-6-|----
|-----------------|-6-6-6-6-6-6-6-6-6-6-6-6-6-6-6-6-6-6-6-6-6-6-6-6-|----
|-----------------|-4-4-4-4-4-4-4-4-4-4-4-4-4-4-4-4-4-4-4-4-4-4-4-4-|----
|-----------------|-------------------------------------------------|----



Rhytm B (2 times)

|-----------------------------------------------|------------------|-----
|-----------------------------------------------|------------------|-----
|-----------------------------------------------|------------------|-----
|-4-4-4-2-4---4-4-4-2-4---4-4-4-2-4---4-4-4-2-4-|------------------|-----
|-4-4-4-2-4---4-4-4-2-4---4-4-4-2-4---4-4-4-2-4-|------------------|-----
|-2-2-2-0-2---2-2-2-0-2---2-2-2-0-2---2-2-2-0-2-|------------------|-----



Rhytm C End!

|----------|-------------|-----------------------------------------------
|----------|-------------|-----------------------------------------------
|----------|-------------|-----------------------------------------------
|----------|--4-4-4-2--4-|-----------------------------------------------
|----------|--4-4-4-2--4-|-----------------------------------------------
|----------|--2-2-2-0--2-|-----------------------------------------------


J'ai transcrit cette toune a l'oreille alors ca ce peut qu'elle ne
soit pas a 100% comme l'originale, faque si vous voyez des erreur dite
le moi, ca vas me faire plaisir de les corriger! Bon Jam!
|------------------------------------------------------------------------
|------------------------------------------------------------------------
|------------------------------------------------------------------------
|------------------------------------------------------------------------
|------------------------------------------------------------------------
|------------------------------------------------------------------------

Тональность:

Это должно быть в ТОП-листе! - Топ-лист композиций



Назад
Рекомендуем посмотреть другие песни исполнителя «Green Day»:

  • Комменты Fb ()
  • Комменты ВК



Добавить в Избранное Браузера
Сохранить здесь Очистить


x

0


+
-

+
-

-

Авторизация





Зарегистрироваться

M

Дата и время

  • 18:05:38
     

Социальные ссылки


Наши приложения

  • Muzbank App Play Market
  • Muzbank Amazon App