MUZBANK


МУЗЫКАЛЬНО-ИНФОРМАЦИОННЫЙ БАНК





GGreen Day • Electric Time Of Your (аккорды и текст - chords & lyrics)


378

Print

Видео «Electric Time Of Your (Green Day)»

Видео клипы к песне подбираются автоматически сайтом youtube. Возможны некоторые несоответствия клипов песне.

↑ Спрятать рекламу ↑





intro
------------------------------------------------|
------3-----------3-----------3-----------3-----|
--------0-----------0-----------0-------2---2---|
----0-----0-----0-----0-----2-----2---0-------0-|
--------------------------3---------------------|

This is the intro ive seen it trust me this is correct
just like bj does it live electric foo!

E|-3-----------3---------------------------------|
B|-----3-----------3-----------3-----------3-----|
G|-------0-----------0-----------0-------2---2---|
D|---0-----0-----0-----0-----2-----2---0-------0-|
A|-------------------------3---------------------|
E|-3-----------3---------------------------------|

Lyrics
(strum the rest basically except the end)
Verse 1
(wierd strumming cant quite tell hes not picking but he is strumming.
do top 2 or 3 string once and then the bottom 3
or so up and down 3 times sounds kinda like it
or pick it but it'll sound differrent of you do!)

G C9 Dsus4 G
Another turning point a fork stuck in the road
G C9 Dsus4 G
Time grabs you by the wrist directs you where to go
Em Dsus4 C9 G
So make the best of these days and don't ask why
Em Dsus4 C9 G
It's not a question but a lesson learned in time

Em G Em G
It's something unpredictable in the end it's right
Em Dsus4 G
I hope you have the time of your life.

chorus 1(5 times each)(LOUD!): G, G, C9, DSUS4

Verse 2:(palm mute and strum)
G C9 Dsus4 G
So take the photographs and stillframes in your mind
G C9 Dsus4 G
Hang it on a shelf; with good health and good time

Em Dsus4 C9 G
Tatoos and memories and asking on trial
Em Dsus4 C9 G
For what it's worth it was worth all the while

Chorus2(do each of these 5 times)(LOUD!):
G, C9, dsus4, G, C9, Dsus4, Em, G, C9, G, Em, G, C9, G, Em, G, Em, G,
Em, Dsus4,
{{G, G, C9, Dsus4}},
{{Well It's somethin unpredictable But in the end
its right i hope youve had the time of your life}}

G, G, C, Dsus4(only twice)

strum each chord once slowly (normal)
G C9 Dsus4 Em G D G
Well It's somethin unpredictable But in the end its
right i hope you've had the time of your life

End:

E|---------------------------------------------------|
B|------3------------3------------3------------3-----|
G|--------0------------0------------0--------2---2---|
D|----0-----0------0-----0------2-----2----0-------0-|
A|----------------------------3----------------------|
E|--3------------3-----------------------------------|

E|-------------------------------------------------------|
B|-----3-----------3------------3------------3-----------|
G|-------0-----------0------------0--------2-----2-------|
D|---0-----0-----0-----0------2-----2----0----------0----|
A|--------------------------3--------------------------0-|
E|-3-----------3-----------------------------------------|

Тональность:

Это должно быть в ТОП-листе! - Топ-лист композиций



Назад
Рекомендуем посмотреть другие песни исполнителя «Green Day»:

  • Комменты Fb ()
  • Комменты ВК



Добавить в Избранное Браузера
Сохранить здесь Очистить


x

0


+
-

+
-

-

Авторизация





Зарегистрироваться

M

Дата и время

  • 17:06:24
     

Социальные ссылки


Наши приложения

  • Muzbank App Play Market
  • Muzbank Amazon App