MUZBANK



A MOST COMPLETE BANK OF MUSIC INFORMATION

МУЗЫКАЛЬНО-ИНФОРМАЦИОННЫЙ БАНК





GGreen Day • Good Riddance (аккорды и текст - chords & lyrics)


260

Print

Видео «Good Riddance (Green Day)»

Видео клипы к песне подбираются автоматически сайтом youtube. Возможны некоторые несоответствия клипов песне.

↑ Спрятать рекламу ↑






 


Gsus2   Em      Cadd9    D      C
--3-----0--------0-------2------0---
--3-----0--------3-------3------3---
--0-----0--------0-------2------0---
--0-----2--------2-------0------2---
--2-----2--------3-------x------3---
--3-----0--------x-------x------x---  


  Gsus2
e--------------------------------------------------------------
A--------0--------------------0--------------------------------
D-----0-----0-------------0------0-----------------------------
G--------------------------------------------------------------
B--------------------------------------------------------------
E--3------------------3----------------------------------------
BJ makes a mistake while playing this, and is not very
pleased.
Then the song really starts.
   Gsus2                             Cadd9             D
e--------------------------------------------------------------------
A----------3----------------3----------------3---------------3-------
D-------0-----0----------0-----0----------0-----0---------2-----2----
G------------------------------------------------------0-----------0-
B------------------------------------3---------------3---------------
E----3-------------3-3------------3----------------------------------
play 4 times(2,3,4th time the same, but substitute the
first 3 on the E-string for a 0 on the D string)
first and second time without singing
  3:another          turning point a fork stuck in the
road
  4:Time grabs you   by the wrist   directs you where to
go

   Em             D            C                  D
e--------------------------------------------------------------------
A---------0-------------3-------------1-----------------3------------
D------0-----0-------2-----2-------2-----2-----------2-----2---------
G---2-----------2-0----------0--------------------0-----------0------
B------------------------------3----------------3--------------------
E--------------------------------------------------------------------
play 2 times
  1:So make the   best of this test and dont ask   why 
  2:It 

Тональность:

Это должно быть в ТОП-листе! - Топ-лист композиций



Назад
Рекомендуем посмотреть другие песни исполнителя «Green Day»:

  • Комменты Fb ()
  • Комменты ВК



Добавить в Избранное Браузера
Сохранить здесь Очистить


x

0


+
-

+
-

-

Авторизация





Зарегистрироваться

M

Дата и время

  • 10:49:17
     

Социальные ссылки


Наши приложения

  • Muzbank App Play Market
  • Muzbank Amazon App