MUZBANK


МУЗЫКАЛЬНО-ИНФОРМАЦИОННЫЙ БАНК





GGreen Day • Haha YouRe Dead (аккорды и текст - chords & lyrics)


451

Print

Видео «Haha YouRe Dead (Green Day)»

Видео клипы к песне подбираются автоматически сайтом youtube. Возможны некоторые несоответствия клипов песне.

↑ Спрятать рекламу ↑





2nd Guitar playing in background

INTRO (play 2x)
==================

Palm-muted most of the time !

E|---------|---------|---------|---------|---------|---------|--------|--------|
B|---------|---------|---------|---------|---------|---------|--------|--------|
G|-5-5-5-5-|-5-5-5-5-|---------|---------|---------|---------|--------|--------|
D|-5-5-5-5-|-5-5-5-5-|-5-5-5-5-|-5-5-5-5-|-7-7-7-7-|-7-7-7-7-|-7-7-7-7|-7-7-7-7|
A|-3-3-3-3-|-3-3-3-3-|-5-5-5-5-|-5-5-5-5-|-7-7-7-7-|-7-7-7-7-|-7-7-7-7|-7-7-7-7|
E|---------|---------|-3-3-3-3-|-3-3-3-3-|-5-5-5-5-|-5-5-5-5-|-5-5-5-5|-5-5-5-5|

VERSE (play 4x)
=================

Palm-muted most of the time !

E|---------|---------|---------|---------|---------|---------|--------|--------|
B|---------|---------|---------|---------|---------|---------|--------|--------|
G|-5-5-5-5-|-5-5-5-5-|---------|---------|---------|---------|--------|--------|
D|-5-5-5-5-|-5-5-5-5-|-5-5-5-5-|-5-5-5-5-|-7-7-7-7-|-7-7-7-7-|-7-7-7-7|-7-7-7-7|
A|-3-5-3-3-|-3-3-3-3-|-5-5-5-5-|-5-5-5-5-|-7-7-7-7-|-7-7-7-7-|-7-7-7-7|-7-7-7-7|
E|---------|---------|-3-3-3-3-|-3-3-3-3-|-5-5-5-5-|-5-5-5-5-|-5-5-5-5|-5-5-5-5|

PRE-CHORUS (play 4x)
=====================

E|---------|---------|
B|---------|---------|
G|---5-----|---------|
D|-335-5-5-|-5-5-5-5-|
A|-333-5-5-|-5-5-5-5-|
E|-11--3-3-|-3-3-5-3-|

CHORUS (play 1x)
=================

E|---------|---------|---------|---------|---------|---------|--------|--------|
B|---------|---------|---------|---------|---------|---------|--------|--------|
G|-5-5-5-5-|-5-5-5-5-|---------|---------|-5-5-5-5-|-5-5-5-5-|--------|--------|
D|-5-5-5-5-|-5-5-5-5-|-3-3-3-3-|-3-3-3-3-|-5-5-5-5-|-5-5-5-5-|-5-5-5-5|-5-5-5-5|
A|-3-3-3-3-|-3-3-3-3-|-3-3-3-3-|-3-3-3-3-|-3-3-3-3-|-3-3-3-3-|-5-5-5-5|-5-5-5-5|
E|---------|---------|-1-1-1-1-|-1-1-1-1-|---------|---------|-3-3-3-3|-3-3-3-3|

E|---------|---------|---------|---------|---------|---------|--------|--------|
B|---------|---------|---------|---------|---------|---------|--------|--------|
G|---------|---------|---------|---------|-5-5-5-5-|---------|-5-5-5-5|-5-5-5-5|
D|-7-7-7-7-|-7-7-7-7-|-3-3-3-3-|-3-3-3-3-|-5-5-5-5-|-5-5-5-5-|-5-5-5-5|-5-5-5-5|
A|-7-7-7-7-|-7-7-7-7-|-3-3-3-3-|-3-3-3-3-|-3-3-3-3-|-5-5-5-5-|-3-3-3-3|-3-3-3-3|
E|-5-5-5-5-|-5-5-5-5-|-1-1-1-1-|-1-1-1-1-|---------|-3-3-3-3-|--------|--------|

SOLO (play 1x)
=================

1st Guitar:

E|---------|---------|---------|---------|---------|---------|--------|--------|
B|-5---5---|-5---5---|-6---6---|-6---6---|-5---5---|-5---5---|-8---8--|-8---8--|
G|---5---5-|---5---5-|---5---5-|---5---5-|---5---5-|---5---5-|---7---7|---7---7|
D|---------|---------|---------|---------|---------|---------|--------|--------|
A|---------|---------|---------|---------|---------|---------|--------|--------|
E|---------|---------|---------|---------|---------|---------|--------|--------|

E|---------|---------|---------|---------|---------|---------|--------|--------|
B|-5---5---|-5---5---|-6---6---|-6---6---|-5---5---|-3---3---|--------|--------|
G|---5---5-|---5---5-|---5---5-|---5---5-|---5---5-|---4---4-|-5-5-5-5|let ring|
D|---------|---------|---------|---------|---------|---------|--------|--------|
A|---------|---------|---------|---------|---------|---------|--------|--------|
E|---------|---------|---------|---------|---------|---------|--------|--------|

2nd Guitar: Chorus

END PART (1x time)
=================

1st Guitar:
At the end with some palm-mute !

E|---------|---------|---------|---------|---------|---------|--------|--------|
B|---------|---------|---------|---------|---------|---------|--------|--------|
G|-5-5-5-5-|---------|---------|---------|-5-5-5-5-|---------|-5-5-5-5|-5-5-5-5|
D|-5-5-5-5-|-5-5-5-5-|-7-7-7-7-|-3-3-3-3-|-3-3-3-3-|-5-5-5-5-|-5-5-5-5|-5-5-5-5|
A|-3-3-3-3-|-5-5-5-5-|-7-7-7-7-|-3-3-3-3-|-3-3-3-3-|-5-5-5-5-|-3-3-3-3|-3-3-3-3|
E|---------|-3-3-3-3-|-5-5-5-5-|-1-1-1-1-|---------|-3-3-3-3-|--------|--------|

2nd Guitar:

E|---------|---------|---------|---------|---------|---------|--------|--------|
B|-5---5---|-3---3---|-5---5---|-6---6---|-5---5---|-3---3---|--------|--------|
G|---5---5-|---4---4-|---5---5-|---5---5-|---5---5-|---4---4-|-5-5-5-5|let ring|
D|---------|---------|---------|---------|---------|---------|--------|--------|
A|---------|---------|---------|---------|---------|---------|--------|--------|
E|---------|---------|---------|---------|---------|---------|--------|--------|

Play:

Intro
Verse
Pre-Chorus
Verse
Pre-Chorus
Chorus
Solo (2nd Guitar: Chorus)
Chorus
Chorus (2nd Guitar: Solo)
End Part (2nd Guitar: End Part Solo)

Rock on.

Тональность:

Это должно быть в ТОП-листе! - Топ-лист композиций



Назад
Рекомендуем посмотреть другие песни исполнителя «Green Day»:

  • Комменты Fb ()
  • Комменты ВК



Добавить в Избранное Браузера
Сохранить здесь Очистить


x

0


+
-

+
-

-

Авторизация





Зарегистрироваться

M

Дата и время

  • 23:33:14
     

Социальные ссылки


Наши приложения

  • Muzbank App Play Market
  • Muzbank Amazon App