MUZBANK


МУЗЫКАЛЬНО-ИНФОРМАЦИОННЫЙ БАНК





GGreen Day • Jinx (аккорды и текст - chords & lyrics)


433

Print

Видео «Jinx (Green Day)»

Видео клипы к песне подбираются автоматически сайтом youtube. Возможны некоторые несоответствия клипов песне.

↑ Спрятать рекламу ↑






INTRO RIFF

G5 C D G5 C D

E|-----------------|-----------------|-----------------|-----------------|

B|-----------------|-----------------|-----------------|-----------------|

G|*--------5-5-5-7-|---7-7-7---7-7-7-|---------5-5-5-7-|---7-7-7---7-7-7*|

D|*5---5---5-5-5-7-|---7-7-7---7-7-7-|-5---5---5-5-5-7-|---7-7-7---7-7-7*|

A|-5---5---3-3-3-5-|---5-5-5---5-5-5-|-5---5---3-3-3-5-|---5-5-5---5-5-5-|

E|-3---3-----------|-----------------|-3---3-----------|-----------------|

2x

VERSE RIFF

G5 D G5 C G5

E|-----------------|-----------------|-----------------|-----------------|

B|-----------------|-----------------|-----------------|-----------------|

G|-----------------|-7-7-7-7-7-7-7-7-|---------5-5-5---|-----------------|

D|-5-5-5-5-5-5-5-5-|-7-7-7-7-7-7-7-7-|-5---5---5-5-5-5-|---5-5-5-5-5-5-5-|

A|-5-5-5-5-5-5-5-5-|-5-5-5-5-5-5-5-5-|-5---5---3-3-3-5-|---5-5-5-5-5-5-5-|

E|-3-3-3-3-3-3-3-3-|-----------------|-3---3---------3-|---3-3-3-3-3-3-3-|


C G5

E|-----------------|-----------------|-----------------|-----------------|

B|-----------------|-----------------|-----------------|-----------------|

G|-5-5-5-5-5-5-5-5-|-5-5-5-5-5-5-5-5-|-----------------|-----------------|

D|-5-5-5-5-5-5-5-5-|-5-5-5-5-5-5-5-5-|-5-5-5-5-5-5-5-5-|-5-5-5-5-5-5-5-5-|

A|-3-3-3-3-3-3-3-3-|-3-3-3-3-3-3-3-3-|-5-5-5-5-5-5-5-5-|-5-5-5-5-5-5-5-5-|

E|-----------------|-----------------|-3-3-3-3-3-3-3-3-|-3-3-3-3-3-3-3-3-|


C G5 D E

E|-----------------|-----------------|-----------------|-----------------|

B|-----------------|-----------------|-----------------|-----------------|

G|-5-5-5-5-5-5-5-5-|-5-5-5-5-5-5-5-5-|---------7-7-7-9-|-9-9-9-9-9-9-9-9-|

D|-5-5-5-5-5-5-5-5-|-5-5-5-5-5-5-5-5-|-5---5---7-7-7-9-|-9-9-9-9-9-9-9-9-|

A|-3-3-3-3-3-3-3-3-|-3-3-3-3-3-3-3-3-|-5---5---5-5-5-7-|-7-7-7-7-7-7-7-7-|

E|-----------------|-----------------|-3---3-----------|-----------------|


C F5 D

E|-----------------|-----------------|-----------------|-----------------|

B|-----------------|-----------------|-----------------|-----------------|

G|-5-5-5-5-5-5-5-5-|-----------------|-7-7-7-7-7-7-7-7-|-7-7-7-7-7-7-7-7-|

D|-5-5-5-5-5-5-5-5-|-3-3-3-3-3-3-3-3-|-7-7-7-7-7-7-7-7-|-7-7-7-7-7-7-7-7-|

A|-3-3-3-3-3-3-3-3-|-3-3-3-3-3-3-3-3-|-5-5-5-5-5-5-5-5-|-5-5-5-5-5-5-5-5-|

E|-----------------|-1-1-1-1-1-1-1-1-|-----------------|-----------------|


CHORUS RIFF

G5 C D

E|-----------------|-----------------|-----------------|-----------------|

B|-----------------|-----------------|-----------------|-----------------|

G|---------------5-|-5-5-5-5-5-5-5-7-|-7-7-7-7-7-7-7-7-|-7-7-7-7-7-7-7-7-|

D|-5-5-5-5-5-5-5-5-|-5-5-5-5-5-5-5-7-|-7-7-7-7-7-7-7-7-|-7-7-7-7-7-7-7-7-|

A|-5-5-5-5-5-5-5-3-|-3-3-3-3-3-3-3-5-|-5-5-5-5-5-5-5-5-|-5-5-5-5-5-5-5-5-|

E|-3-3-3-3-3-3-3---|-----------------|-----------------|-----------------|


Intro w/ Intro Riff

Verse 1 w/ Verse Riff

I ***ed up again

It's all my fault

So turn m around and face the wall.

Read me my rights and tell me I'm wrong.

Until it gets into my thick skull.


Verse 2 w/ Verse Riff

A slap on the wrist.

A stab in the back.

Torture me, I've been a bad boy.

Nail me to the cross until you have won.

I lost before I did any wrong.


Interlude w/ Intro Riff


Verse 3 w/ Verse Riff

I'm hexed with regrets and bad luck.

Keep your distance 'cause it's rubbing off.

Or you will be ***ed to spend your life in hell.

Or earth with me tangled at your feet.

Verse 4 w/ Verse Riff

You finally met your nemesis

disguised as your fatal long lost love.

So kiss it good bye until death do we part.

You fell for a jinx for crying out loud.


Interlude w/ Intro Riff


Chorus w/ Chorus Riff

I'm a jinx hanging around you.

Тональность:

Это должно быть в ТОП-листе! - Топ-лист композиций



Назад
Рекомендуем посмотреть другие песни исполнителя «Green Day»:

  • Комменты Fb ()
  • Комменты ВК



Добавить в Избранное Браузера
Сохранить здесь Очистить


x

0


+
-

+
-

-

Авторизация





Зарегистрироваться

M

Дата и время

  • 02:36:01
     

Социальные ссылки


Наши приложения

  • Muzbank App Play Market
  • Muzbank Amazon App