MUZBANK


МУЗЫКАЛЬНО-ИНФОРМАЦИОННЫЙ БАНК





GGreen Day • Poprocks & Coke (аккорды и текст - chords & lyrics)


424

Print

Видео «Poprocks & Coke (Green Day)»

Видео клипы к песне подбираются автоматически сайтом youtube. Возможны некоторые несоответствия клипов песне.

↑ Спрятать рекламу ↑





G|----------------------------------
D|------------------------------2-2-
A|-0-00-0-0-00-0--0-00-0-0-00-0-----
E|----------------------------------

G|-------------------------------------------
D|---------------0-00-0-0-00-0---------------
A|-0-00-0-0-00-0---------------0-00-0-0-00-0-
E|-------------------------------------------

G|-------------------------------------------
D|-2-22-2-2-22-1-0-00-0-0-00-0---------------
A|-----------------------------0-00-0-0-00-0-
E|-------------------------------------------

G|-------------------------------------------
D|---------------0-00-0-0-00-0---------------
A|-0-00-0-0-00-0---------------0-00-0-0-00-0-
E|-------------------------------------------

G|------------------------------------------------------
D|-2-22-2-2-22-1-0-00-0-0-00-0--------------------------
A|-----------------------------0-00-0-00-0--------------
E|-----------------------------------------0-2-22-2-0-0-

G|---------------------------------------------
D|-0----------------0--------------------------
A|---0-2-2-22-2-22----0-2-2-22-2-22--0-0-0-000-
E|---------------------------------------------

G|--------------------------------
D|---------------2-2--------------
A|-0-00-0-0-00-0-----XXXXXXXXXXXX-
E|--------------------------------

Right Here Billy Joe will sing with no instruments. Turn on medium distortion.

G|---------------------------------------------------------
D|-0-00-0-0-00-0---------------2-22-2-2-22-1-0-00-0-0-00-0-
A|---------------0-00-0-0-00-0-----------------------------
E|---------------------------------------------------------

G|---------------------------------------------------------------
D|--------------------------0--------------0---------------------
A|-0-00-0-0-00----------------0-2-2-222-22---0-2-22-222-0-00-000-
E|-------------0-2-2-22-000--------------------------------------

G|---------------------------------------------------------------
D|---------------------------------------------------------------
A|-0-00-0-0-00-0--0-00-0-0-00---------------------2-22-22-22-222-
E|----------------------------0-2-22-22-22-2-0-00----------------

G|--------------------------------------------------------
D|-0-00-00-00-0-------------------------------------------
A|--------------2-22-22-22-22----------------2-22-222-222-
E|----------------------------2-22-22-22-000--------------

G|------------------------------------------------------------
D|-00000000-22222222- Billy Joe --0-00-0-0-00-0---------------
A|------------------- Sings ----------------0-00-0-0-00-0-
E|------------------------------------------------------------

G|------------------------------------------------------
D|-2-22-2-2-22-1-0-00-0-0-00-0--------------------------
A|-----------------------------0-00-0-0-00--------------
E|-----------------------------------------0-2-22-22-00-

G|------------------------------------------------------
D|-0-----------------0-----------------0----------------
A|---0-2-2-222-22-00---0-2-2-222-22-00---0-222222222222-
E|------------------------------------------------------

Take Distortion Off

G|-----------------------------------------------
D|-----------2-2-----------2-2-----------2-2-----
A|-0-00-0-00-----0-00-0-00-----0-00-0-00-----*0*-
E|-----------------------------------------------

Тональность:

Это должно быть в ТОП-листе! - Топ-лист композиций



Назад
Рекомендуем посмотреть другие песни исполнителя «Green Day»:

  • Комменты Fb ()
  • Комменты ВК



Добавить в Избранное Браузера
Сохранить здесь Очистить


x

0


+
-

+
-

-

Авторизация





Зарегистрироваться

M

Дата и время

  • 09:03:32
     

Социальные ссылки


Наши приложения

  • Muzbank App Play Market
  • Muzbank Amazon App