MUZBANK



A MOST COMPLETE BANK OF MUSIC INFORMATION

МУЗЫКАЛЬНО-ИНФОРМАЦИОННЫЙ БАНК





GGreen Day • Uptight (аккорды и текст - chords & lyrics)


297

Print

Видео «Uptight (Green Day)»

Видео клипы к песне подбираются автоматически сайтом youtube. Возможны некоторые несоответствия клипов песне.

↑ Спрятать рекламу ↑






 


UPTIGHT
green day
Tabbed by KoRny Freak 

intro/verse
|-----------------------------------------------------------------
|-----------------------------------------------------------------
|-----------------------------------------------------------------
|-4-4-4-3-3-3-4-4-4-3-3-3-4-4-3-3-4-4-4-3-3-3-4-4-4-3-3-3-4-4-3-3-
|-----------------------------------------------------------------
|-----------------------------------------------------------------

-----------------------------------------------------------------|
-----------------------------------------------------------------|
-----------------------------------------------------------6-6---|
-4-4-4-3-3-3-4-4-4-3-3-3-4-4-3-3-4-4-4-3-3-3-4-4-4-3-3-3-4-6-6---|
-----------------------------------------------------------4-4---|
-----------------------------------------------------------------|

post verse  

Тональность:

Это должно быть в ТОП-листе! - Топ-лист композиций



Назад
Рекомендуем посмотреть другие песни исполнителя «Green Day»:

  • Комменты Fb ()
  • Комменты ВК



Добавить в Избранное Браузера
Сохранить здесь Очистить


x

0


+
-

+
-

-

Авторизация





Зарегистрироваться

M

Дата и время

  • 02:50:36
     

Социальные ссылки


Наши приложения

  • Muzbank App Play Market
  • Muzbank Amazon App