MUZBANK


МУЗЫКАЛЬНО-ИНФОРМАЦИОННЫЙ БАНК





GGreyhoundz • Mr Pig (аккорды и текст - chords & lyrics)


313

Print

Видео «Mr Pig (Greyhoundz)»

Видео клипы к песне подбираются автоматически сайтом youtube. Возможны некоторые несоответствия клипов песне.

↑ Спрятать рекламу ↑





 


song:mr. p.i.g.
album:seven corners of your game
artist:greyhoundz
tabbed by:leander m.
legend:pedal pitch press up ^.....pedal pitch push down v
       ()natural harmonics.....artificial harmonics
I tune this on drop D
info:any comments,suggestion,E-mail me at leander_85@yahoo.com 
     text/call or text/call 09193216020

intro:(you guys there its now your bussiness to count how many times is this) 
guitar I first then guitar II
E|-------------------------||-------|
B|-------------------------||-------|
G|-------------------------||-------|
D|--4/54/5---------7-7-6--||--4/5--|
A|--2/32/3---------5-5-4--||--2/3--|
D|--0/0/0--0-0-0--0-0-0--||--0/0--|
             . . .
Intro part II
E|---------------------------|
B|---------------------------|
G|---------------------------|
D|--4-4-4-4--7--4-4-4-4-5-6--|
A|--2-2-2-2--5--2-2-2-2-3-4--|
D|--0-0-0-0--0--0-0-0-0-0-0--|
    . . . .     . . . 

stanza                       ^ v  ^  v  ^ v  ^   
E|-------------------------------------------------------|
B|--/12--------------------12------------------10h11p10--|
G|------11-12----10h11p10--------11----10----------------|
D|------------12----------------------------12-----------|
A|-------------------------------------------------------|
D|-------------------------------------------------------|

riff b4 bridge(heavy distort with low vol.)
guitar I
E|-------------------------|
B|-------------------------|
G|-------------------------|
D|--1p0-0h3p1-0h1p0-0h3p1--|
A|--1p0-0h3p1-0h1p0-0h3p1--|
D|--1p0-0h3p1-0h1p0-0h3p1--|

guitar I&II(heavy distort. with high vol.
E|------------------------|
B|-------------------(7)--|
G|-------------------(7)--|
D|--1p0-0h3p1-------------|
A|--1p0-0h3p1-0-0-0-------|
D|--1p0-0h3p1-0-0-0-------|
              . . .
E|---------------|
B|---------------|
G|---------------|(8x)
D|--0h1p0-0h3p1--|
A|--0h1p0-0h3p1--|
D|--0h1p0-0h3p1--|
bridge:
E|-------------------------(7)--|
B|------------------------------|
G|------------------------------|
D|--1-0-0-3-3-1-0-0-0-0-0-------|
A|--1-0-0-3-3-1-0-0-0-0-0-------|
D|--1-0-0-3-3-1-0-0-0-0-0-------|
    . . . . . . . . . . . 
finalle
E|---------------|
B|---------------|
G|---------------|
D|--0h1p0-0h3p1--|
A|--0h1p0-0h3p1--|
D|--0h1p0-0h3p1--|

repeat chorus
repeat lasst riff

tabbed by:leander_85@yahoo.com
                                     the_end
 

Тональность:

Это должно быть в ТОП-листе! - Топ-лист композиций



Назад
Рекомендуем посмотреть другие песни исполнителя «Greyhoundz»:

  • Комменты Fb ()
  • Комменты ВК



Добавить в Избранное Браузера
Сохранить здесь Очистить


x

0


+
-

+
-

-

Авторизация





Зарегистрироваться

M

Дата и время

  • 15:38:36
     

Социальные ссылки


Наши приложения

  • Muzbank App Play Market
  • Muzbank Amazon App