MUZBANK


МУЗЫКАЛЬНО-ИНФОРМАЦИОННЫЙ БАНК





GGrim Skunk • Perestroiska (аккорды и текст - chords & lyrics)


301

Print

Видео «Perestroiska (Grim Skunk)»

Видео клипы к песне подбираются автоматически сайтом youtube. Возможны некоторые несоответствия клипов песне.

↑ Спрятать рекламу ↑





 


song: Perestroiska
band: Grimskunk
album: Exotic blend
tabbed by: Carlos Pino

-------------------|-----------------------|-----------------|-----
---------2-2------|----------------------|---------2-2-----|-----
-----3-3-----3-3-|-----2-2-5-5-2-2-|-----3-3-----3-3-|-----
-5-5---------------|-4-4----------------|-5-5-------------|-----
                                                        
-------------------
-------------3-3-----
---2-2-5-5-----5-5-
-------------------
                                         
On est  

Тональность:

Это должно быть в ТОП-листе! - Топ-лист композиций



Назад
Рекомендуем посмотреть другие песни исполнителя «Grim Skunk»:

  • Комменты Fb ()
  • Комменты ВК



Добавить в Избранное Браузера
Сохранить здесь Очистить


x

0


+
-

+
-

-

Авторизация





Зарегистрироваться

M

Дата и время

  • 07:33:30
     

Социальные ссылки


Наши приложения

  • Muzbank App Play Market
  • Muzbank Amazon App