MUZBANK


МУЗЫКАЛЬНО-ИНФОРМАЦИОННЫЙ БАНК





GGrim Skunk • Spiderman (аккорды и текст - chords & lyrics)


353

Print

Видео «Spiderman (Grim Skunk)»

Видео клипы к песне подбираются автоматически сайтом youtube. Возможны некоторые несоответствия клипов песне.

↑ Спрятать рекламу ↑





 


------------------------------------------
SPIDERMAN / GRIM SKUNK
------------------------------------------
intro
G:----------------------------------------------------------------------------------------
D:-|-----------------------------------------------------------------------------------|
A:-|-12-10-7--12-10-7--12-10-7--12-10-7--7-10-7-5-7-10-7-5-7-10-7-5-----|
E:-------------------------------------------------------------------------------------

     A                                                  4x                   | B     6x
G-|-----------------------------------------------------------------|-------------------------------|
D-|-----------------------------------------------------------------|-------------------------------|
A-|-5--5-5-5---8---8--8--8----5--5-5-5---3-0-3----------|--------5---8----5---3-------|
E-|----------------------------------------------------------------|--------------------------------|

                                       
A    4x                        

                             1x
G-|----------------------------|    
D-|-----------------------------|
A-|-5----8-----5----3----7-|
E-|-----------------------------|

     C
G-|----------------------------------------------------------------------------|
D-|----------------------------------------------------------------------------|
A-|---------0-2-0-----------------0-2-0-----------------0-2-0-----------------0-2-0---------|
E-|--0-2-3--------3-2----0-2-3---------3-2---0-2-3---------3-2---0-2-3---------3-2--




Ici, les 2 guit recommencent  

Тональность:

Это должно быть в ТОП-листе! - Топ-лист композиций



Назад
Рекомендуем посмотреть другие песни исполнителя «Grim Skunk»:

  • Комменты Fb ()
  • Комменты ВК



Добавить в Избранное Браузера
Сохранить здесь Очистить


x

0


+
-

+
-

-

Авторизация





Зарегистрироваться

M

Дата и время

  • 16:19:06
     

Социальные ссылки


Наши приложения

  • Muzbank App Play Market
  • Muzbank Amazon App