MUZBANK


МУЗЫКАЛЬНО-ИНФОРМАЦИОННЫЙ БАНК





GGuano Apes • Big In Japan (аккорды и текст - chords & lyrics)


1450

Print

Видео «Big In Japan (Guano Apes)»

Видео клипы к песне подбираются автоматически сайтом youtube. Возможны некоторые несоответствия клипов песне.

↑ Спрятать рекламу ↑





 


Intro:
1----------------------
2----------------------
3----------------------
4|10-10-10-10--6----8-8-8-8--3--3--
5|10-10-10-10--6----8-8-8-8--5--3--
6|-8--8--8--8--4----6-6-6-6--5--1--

---------------------------|
---------------------------|
---------------------------|  x2
--6-6-6-6---3----4---------|
--6-6-6-6---3----4---------|
--4-4-4-4---1----2---------|

 


Dm
Winter's cityside
Bb                       
Crystal bits of snowflakes
C                                     A
All around my head and in the wind
Dm
I had no illusions
Bb                        C
That I'd ever find a glimpse
                                           A
Of summer's heatwaves in your eyes
Dm        Bb               C
You did what you did to me
             A        Bb
Now it's history I see
              Gm                  A
Here's my comeback on the road again
Dm            Bb                 C
Things will happen while they can
       A                    Bb
I will wait here fore my man tonight
Gm                      A
It's easy when you're big in Japan

Припев:

Dm   Bb
 You're big in Japan
C  A
You're big in Ja-pan
Bb  Gm  A
You're big in Japan
Dm
You're big in Japan
Bb             Cm
Then I'll sleep by your side all through the
A
night
Bb
Big in Japan
Gm     A
It's easy to be...

Neon on my skin, passing silhouettes
Of strange illuminated mannequins
Shall I stay here at the zoo
Or should I Go and change my point of view
For other ugly scenes
You did what you did to me
Now it's history
I         see
Things will happen while they can
I will wait here for my man tonight
It's easy when you big in Japan




/Intro/ (2x)
--------------------------------------------------|
--------------------------------------------------|
----12-------------12-----12-----------(b)12--12--|
-------14--12--14------------14--12--14-----------|
--------------------------------------------------|
--------------------------------------------------|
 
-------------------------------------------|
-------------------------------------------|
--12-------------12--(b)14-14-14-14-14-14--|
-----14--12-14-----------------------------|
-------------------------------------------|
-------------------------------------------|
 
 
/Verse/
part1 (bass)
|--------------------------------------------------------------------|
|--------------------------------------------------------------------|
|------------------3-3-3-3-3-3-3-3-3-5-5-5-5-5-5-5-5-2-2-2-2-2-2-2-2-|
|--0-0-0-0-0-0-0-0---------------------------------------------------|

Part 2
Guitar1                          Guitar2 (ska beat)
  2 times                          just repeat all over
--------------------------   --x--12--x--12--x--12--x--12---|
--------------------------   --x--12--x--12--x--12--x--12---|
-----5--7--4--5-----4--4--   -------------------------------|
--2--5--7--4--5--7--4--4--   -------------------------------|
--2--3--5--2--3--7--2--2--   -------------------------------|
--0--------------5--------   -------------------------------|
 
/Chorus/ (2x)
(mute first time only)
------------------------------------------------------------|
------------------------------------------------------------|
--------x--x--5--5--x-x-x-x--7--7--x--x--4--4-x-x-x-x--5--5-|
--2--2--x--x--5--5--x-x-x-x--7--7--x--x--4--4-x-x-x-x--5--5-|
--2--2--x--x--3--3--x-x-x-x--5--5--x--x--2--2-x-x-x-x--3--3-|
--0--0--x--x------------------------------------------------|
                                 Guitar2
                                last chorus only (reverb)
-------------------------     ----12-12-12-12-12-12-12-12---|
-------------------------     ------------------------------|
-x--x----------------4---     ------------------------------|
-x--x--7--7-x-x-x-x--4---     ------------------------------|
-x--x--7--7-x-x-x-x--2---     ------------------------------|
-x--x--5--5-x-x-x-x------     ------------------------------|
 
/Bridge/

Part1
-----------------------------------|
-----------------------------------|
--------------5-----5--7-----4-----|
--2--2-----2--5-----5--7-----4-----|
--2--2-----2--3-----3--5-----2-----|
--0--0-----------------------------|

Part2 Try to get some harmonics when muting
------------------------------------------------------------------|
------------------------------------------------------------------|
------------------5---x-x-x-x-x-x-7---x-x-x-x-x-x-4---x-x-x-x-x-x-|
--2---x-x-x-x-x-x-5---x-x-x-x-x-x-7---x-x-x-x-x-x-4---x-x-x-x-x-x-|
--2---x-x-x-x-x-x-3---x-x-x-x-x-x-5---x-x-x-x-x-x-2---x-x-x-x-x-x-|
--0---x-x-x-x-x-x-------------------------------------------------|
 
-------------------------------------------------------------------|
-------------------------------------------------------------------|
--5---x-x-x-x-x-x-----------------4-4-4-4-4-4-4-4-4-4-4-4-4-4-4-4--|
--5---x-x-x-x-x-x-7---x-x-x-x-x-x-4-4-4-4-4-4-4-4-4-4-4-4-4-4-4-4--|
--3---x-x-x-x-x-x-7---x-x-x-x-x-x-2-2-2-2-2-2-2-2-2-2-2-2-2-2-2-2--|
------------------5---x-x-x-x-x-x----------------------------------|
 

Тональность:

Это должно быть в ТОП-листе! - Топ-лист композиций



Назад
Рекомендуем посмотреть другие песни исполнителя «Guano Apes»:

  • Комменты Fb ()
  • Комменты ВК



Добавить в Избранное Браузера
Сохранить здесь Очистить


x

0


+
-

+
-

-

Авторизация





Зарегистрироваться

M

Дата и время

  • 07:22:19
     

Социальные ссылки


Наши приложения

  • Muzbank App Play Market
  • Muzbank Amazon App