MUZBANK


МУЗЫКАЛЬНО-ИНФОРМАЦИОННЫЙ БАНК





GGuano Apes • Dodel Up (аккорды и текст - chords & lyrics)


377

Print

Видео «Dodel Up (Guano Apes)»

Видео клипы к песне подбираются автоматически сайтом youtube. Возможны некоторые несоответствия клипов песне.

↑ Спрятать рекламу ↑






 


intro
e---------------------------------
b---------------------------------
g|----------12--11-9--11----------------------
d|--12--11--12--11-9--11----------------------
a|--12--11--10--9--7--9-----------------------
e|--10--9-------------------------------------




e---------------------------------
b---------------------------------
g|--11-*-11-*--11-*-(12)----------------------
d|--11-*-11-*--11-*-(12)----------------------
a|--9--*-9--*--9--*-(10)----------------------
e---------------------------------


*
* -  

Тональность:

Это должно быть в ТОП-листе! - Топ-лист композиций



Назад
Рекомендуем посмотреть другие песни исполнителя «Guano Apes»:

  • Комменты Fb ()
  • Комменты ВК



Добавить в Избранное Браузера
Сохранить здесь Очистить


x

0


+
-

+
-

-

Авторизация





Зарегистрироваться

M

Дата и время

  • 08:45:01
     

Социальные ссылки


Наши приложения

  • Muzbank App Play Market
  • Muzbank Amazon App