MUZBANK


МУЗЫКАЛЬНО-ИНФОРМАЦИОННЫЙ БАНК





GGuano Apes • Living In A Lie (аккорды и текст - chords & lyrics)


321

Print

Видео «Living In A Lie (Guano Apes)»

Видео клипы к песне подбираются автоматически сайтом youtube. Возможны некоторые несоответствия клипов песне.

↑ Спрятать рекламу ↑






 


Intro:


e-----------------------------
b-----------------------------
g|------0------------0--------------------
d-----------------------------
a|----2----3p2-2(h)3---3------------------
e|--0-------------------------------------


e-----------------------------
b-----------------------------
g|------0------------0--------------------
d-----------------------------
a|----2----3p2-2(h)3---3------------------
e|--0-------------------------------------


e----------------------------
b----------------------------
g|------0--------------------------------
d----------------------------
a|--3-2----3-----------------------------
e----------------------------


e-----0----------------------
b-----3----------------------
g|--0-------0-----0----------------------
d----------------------------
a|----3-3-2---3--------------------------
e----------------------------

 

Тональность:

Это должно быть в ТОП-листе! - Топ-лист композиций



Назад
Рекомендуем посмотреть другие песни исполнителя «Guano Apes»:

  • Комменты Fb ()
  • Комменты ВК



Добавить в Избранное Браузера
Сохранить здесь Очистить


x

0


+
-

+
-

-

Авторизация





Зарегистрироваться

M

Дата и время

  • 08:13:41
     

Социальные ссылки


Наши приложения

  • Muzbank App Play Market
  • Muzbank Amazon App