MUZBANK


МУЗЫКАЛЬНО-ИНФОРМАЦИОННЫЙ БАНК





GGuano Apes • Pretty In Scarlet (аккорды и текст - chords & lyrics)


972

Print

Видео «Pretty In Scarlet (Guano Apes)»

Видео клипы к песне подбираются автоматически сайтом youtube. Возможны некоторые несоответствия клипов песне.

↑ Спрятать рекламу ↑





  D5         F5      F5         C5      D5         F5      F5  E5  C5
E|5-5-5-5-5----------8-8-8-8-8--3-3-----5-5-5-5-5----------8---7---3-3-|
B|3-3-3-3-3----------6-6-6-6-6--1-1-----3-3-3-3-3----------6---5---1-1-|
G|2-2-2-2-2--5-5-----5-5-5-5-5--0-0-----2-2-2-2-2--5-5-----5---4---0-0-|
D|-----------3-3-----------------------------------3-3-----------------|
A|-----------3-3-----------------------------------3-3-----------------|
E|---------------------------------------------------------------------|

 Pre-chorus(?cause nothing?s good I can explain...)
  D5   F5                        C5
E|---------------------------|  |-------------------|
B|---------------------------|  |-------------------|
G|7--7-10-10--10-10-10101010-|  |5--5-5-5--5-5-5555-|
D|7--7-10-10--10-10-10101010-|  |5--5-5-5--5-5-5555-|
A|5--5-8--8---8--8--8-8-8-8--|  |3--3-3-3--3-3-3333-|
E|---------------------------|x3|-------------------|
  D5   F5                        distorted
E|---------------------------|  |---------------|
B|---------------------------|  |---------------|
G|7--7-10-10--10-10-10101010-|  |---------------|
D|7--7-10-10--10-10-10101010-|  |55555555555555-|
A|5--5-8--8---8--8--8-8-8-8--|  |33333333333333-|
E|---------------------------|x3|---------------|

 Chorus(distorted):
  D5     F5           D5     F5
E|----------------------------------------|
B|----------------------------------------|
G|7--7----------------7--7----------------|
D|7--7-3-3--3-3-3-3-3-7--7-3-3--3-3-3-3-3-|
A|5--5-3-3--3-3-3-3-3-5--5-3-3--3-3-3-3-3-|
E|-----1-1--1-1-1-1-1------1-1--1-1-1-1-1-|

   D5     F5           F5         C5
E|-------------------------------------------|
B|-------------------------------------------|
G|-7--7----------------10--10-5-5--5-5-5-5-5-|
D|-7--7-3-3--3-3-3-3-3-10--10-5-5--5-5-5-5-5-|
A|-5--5-3-3--3-3-3-3-3--8---8-3-3--3-3-3-3-3-|
E|------1-1--1-1-1-1-1-----------------------|

 Lyrics:

We slept a while
To turn it off and get it off our minds
I slept a while
To get it all
It seems alright
To find the place without a single lie
Where is the night
We ran into

?cause nothing?s good I can explain
Fallin? down and cought up the rain
I turned myself into changes
The nigth I kissed you good bye
?cause nothing?s good I can explain
Fallin? down and cought up the rain
I turned myself into changes
Your death is over

You wanna leave a lie (I?m pretty in scarlet)
Come on
You wanna wash it down (I?m pretty in scarlet)
I turned myself to say goodbye
You wanna leave it (I?m pretty in scarlet)
Come on
You wanna wash it down (I?m pretty in scarlet)
I turned myself to say

It?s ok doesn?t count
Farther place deeper sound
Let me dive alone
Let me dive alone
You get me wine
To poison me and take away my time
I can you cry
I want know why

ause nothing?s good I can explain
Fallin? down and cought up the rain
I turned myself into changes
The nigth I kissed you good bye
?cause nothing?s good I can explain
Fallin? down and cought up the rain
I turned myself into changes
Your death is over

You wanna leave a lie (I?m pretty in scarlet)
Come on
You wanna wash it down (I?m pretty in scarlet)
I turned myself to say goodbye
You wanna leave it (I?m pretty in scarlet)
Come on
You wanna wash it down (I?m pretty in scarlet)
I turned myself to say goodbye

And if you throw a stone at me
And if you need some fantasy
And if you leave a lie
I will run I will run I will run away
And if you throw a stone at me
And if you need some fantasy
And if you leave a lie
I will run

Тональность:

Это должно быть в ТОП-листе! - Топ-лист композиций



Назад
Рекомендуем посмотреть другие песни исполнителя «Guano Apes»:

  • Комменты Fb ()
  • Комменты ВК



Добавить в Избранное Браузера
Сохранить здесь Очистить


x

0


+
-

+
-

-

Авторизация





Зарегистрироваться

M

Дата и время

  • 05:48:07
     

Социальные ссылки


Наши приложения

  • Muzbank App Play Market
  • Muzbank Amazon App