MUZBANK


МУЗЫКАЛЬНО-ИНФОРМАЦИОННЫЙ БАНК





GGuano Apes • Rain (аккорды и текст - chords & lyrics)


323

Print

Видео «Rain (Guano Apes)»

Видео клипы к песне подбираются автоматически сайтом youtube. Возможны некоторые несоответствия клипов песне.

↑ Спрятать рекламу ↑






 


e|-3------3-|---1-------1-----------
b|-1----1---------------
g|-2--2-----------------
d|-0--------------------
a|-0--0-----|--0-2-3-2--|-1----1--1-------------
e|-0--------|----------1------------------------




e|-3------3--|---1-----1-------------
b|-1----1----------------
g|-2--2-----|----4-5-4---|-3---3-3---------------
d|-0--------|----4-5-4-3-|-3---3-3---------------
a|-0--0-----|--0-2-3-2-3-|-1---1-1---------------
e|-0--------|----------1-------------

I 

Тональность:

Это должно быть в ТОП-листе! - Топ-лист композиций



Назад
Рекомендуем посмотреть другие песни исполнителя «Guano Apes»:

  • Комменты Fb ()
  • Комменты ВК



Добавить в Избранное Браузера
Сохранить здесь Очистить


x

0


+
-

+
-

-

Авторизация





Зарегистрироваться

M

Дата и время

  • 22:30:24
     

Социальные ссылки


Наши приложения

  • Muzbank App Play Market
  • Muzbank Amazon App