MUZBANK


МУЗЫКАЛЬНО-ИНФОРМАЦИОННЫЙ БАНК





GGuano Apes • Rain (аккорды и текст - chords & lyrics)


325

Print

Видео «Rain (Guano Apes)»

Видео клипы к песне подбираются автоматически сайтом youtube. Возможны некоторые несоответствия клипов песне.

↑ Спрятать рекламу ↑






 


1|-8----8--------------1------1-
2|-6----6-----------------------
3|-7--7-------------------------
4|-5-5--------------------------
5|-5------0-2-3-2----1----1-1---
6|-5----------------1-----------

-8----8---------------1-----1-|
-6----6-----------------------|
-7--7-----4-5-4---------3-3---|
-5-5------4-5-4--3-3----3-3---|
-5------0-2-3-2--3-3----1-1---|
-5---------------1-1----------|


1  

Тональность:

Это должно быть в ТОП-листе! - Топ-лист композиций



Назад
Рекомендуем посмотреть другие песни исполнителя «Guano Apes»:

  • Комменты Fb ()
  • Комменты ВК



Добавить в Избранное Браузера
Сохранить здесь Очистить


x

0


+
-

+
-

-

Авторизация





Зарегистрироваться

M

Дата и время

  • 10:32:12
     

Социальные ссылки


Наши приложения

  • Muzbank App Play Market
  • Muzbank Amazon App