MUZBANK



A MOST COMPLETE BANK OF MUSIC INFORMATION

МУЗЫКАЛЬНО-ИНФОРМАЦИОННЫЙ БАНК





GGuns N Roses • Ain`t It Fun (tab) (аккорды и текст - chords & lyrics)


381

Print

Видео «Ain`t It Fun (tab) (Guns N Roses)»

Видео клипы к песне подбираются автоматически сайтом youtube. Возможны некоторые несоответствия клипов песне.

↑ Спрятать рекламу ↑





 


Gilby parts 
 -------------------------------------------------------| 
 -------------------------------------------------------| 
 |-----4-------4-------7-------2-------4-------4-------4-------4----| 
 |---4---4---4-------7---7---2---2---5---5---5---5---4---4---4---4--| 
 |-2-------2-----4-5-------0-----------------------2-------2--------| 
 ----------------------3-------3------------------------| 
 
 
 
 Slash parts 
 ---------------------------------------------5---7-5-7-| 
 ------------------------------------5-/-7--------------| 
 ----------------2---4-----------4---7---7--------------| 
 ----------2-4------------------------------------------| 
 |-2----------2-4-5-------------------------------------------------| 
 -------------------------------------------------------| 
 
 
 
  

Тональность:

Это должно быть в ТОП-листе! - Топ-лист композиций



Назад
Рекомендуем посмотреть другие песни исполнителя «Guns N Roses»:

  • Комменты Fb ()
  • Комменты ВК



Добавить в Избранное Браузера
Сохранить здесь Очистить


x

0


+
-

+
-

-

Авторизация





Зарегистрироваться

M

Дата и время

  • 17:17:14
     

Социальные ссылки


Наши приложения

  • Muzbank App Play Market
  • Muzbank Amazon App