MUZBANK


МУЗЫКАЛЬНО-ИНФОРМАЦИОННЫЙ БАНК





GGuns N Roses • Dead Horse (аккорды и текст - chords & lyrics)


449

Print

Видео «Dead Horse (Guns N Roses)»

Видео клипы к песне подбираются автоматически сайтом youtube. Возможны некоторые несоответствия клипов песне.

↑ Спрятать рекламу ↑






Intro:
A5                B5 G#5  F#5      G#5   A5  G#5 A5 G#5 A5
  sick of this life,     not that you`d care
             B5      E5
i`m not the only one with

                      F#5 G5 G#5 A5      B5        C#5 G#5
whom these feelings i share       nobody understands
       A5   B5   A5
quite why we`re here

G#5 A5 G#5 A5          G#5  A5  B5     E5
            we`re searchin` for answers  that never appear
 F#5 G5 G#5 A5
but maybe if i looked

               G#5       F#5 G#5 A5   G#5 A5 G#5 A5
real hard i`d, i`d see ya tryin` to,
   B5                  E5
to understand this life,

                             F#5 G5 G#5 A5 B5 G#m A A
that we`re all goin` through

           A                           B     E   Esus4
(then when she said she was gonna like wreck
my car i didn`t know what to do) woh!

Chorus:
A5                        E5
sometimes i feel like i`m beating a dead horse and i
 A5
don`t know why
         E5                A5
you`d be bringing me down, i`d like to think that our
 E5
love`s worth
             A5                   E5
a tad more it may sound funny but you`d think
                 F#5
by now i`d be smiling
G#5 A5                          E5 E6 E5 E6 E5
i guess some things never change
    E6 E5 E6  E5  E6 E5 E6 E5 E6 E5 E6
woh,  never change

Verse:
A5           B5     G#5                    A5 G#5 F#5 E5 A5
i met an old cowboy, i saw the look in his eyes  something
                                                        tells me
     B5                     E
he`s been here before cause
 E5                         A5
experience makes you wise, i was only a
B5                    G#5
small child when the thought first came
   A5
to me that i`m the son of a
            B5                E5
gun and the gun of a son that brought back the devil in me

[chorus]

Bridge:
     C#m                        F#
i aint quite what you`d call an old soul
    C#m                  F#
still wet behind the ears i
      C#m                F#
been around this track a couple of times
             A5
but now the    dust is starting
       B5
to clear_______ oh_______  yeah!

 Solo:
E|----------------------------------------------------0--------|
B|-14fbrp12----9/10~---------12-----0-9/10~~----------0--------|
G|----------14-------11hbr-9----9~~----------11hbr-9-11-(11)fb-|
D|-------------------------------------------------------------|
A|-------------------------------------------------------------|
E|-------------------------------------------------------------|

E|--------------------------------------------------9-hbfb-r-9-|
B|-0-10-9/10~~~~~--10---------12---0-10fb-10fb~~-12------------|
G|--------------------11fbr-9----9-----------------------------|
D|-------------------------------------------------------------|
A|-------------------------------------------------------------|
E|-------------------------------------------------------------|

E|-------------------------------------9-12----14fbrp12-14-14~-|
B|-12-11-(11)p9-----------9--12fb-12~-------9------------------|
G|--------------11-11~~~~--------------------------------------|
D|-------------------------------------------------------------|
A|-------------------------------------------------------------|
E|-------------------------------------------------------------|

E|---------9-------12fb---9-----------9------12--9------19-19~-|
B|-0-12fb----12-9-----------12-9-12-----12-9-------12-9--------|
G|-------------------------------------------------------------|
D|-------------------------------------------------------------|
A|-------------------------------------------------------------|
E|-------------------------------------------------------------|

E|-19-21-21hb-21fb~-(21)---------------------------------------|
B|------------------------------------------------------19-----|
G|-----------------------16-18-hbfb-18-18-16-18-18fbr-16--18fb-|
D|-------------------------------------------------------------|
A|-------------------------------------------------------------|
E|-------------------------------------------------------------|

                      chorus: A5                        E5
E|-------------------------------------------------------------|
B|-16------16--------------------------------------------------|
G|----18fb----18-16-18-16-----14~~~~~~~~~~~~~~~~~~(14)13~~~~~~-|
D|-------------------------------------------------------------|
A|-------------------------------------------------------------|
E|-------------------------------------------------------------|
                      some times i feel like i`m beating a dead

              A5                      E5
E|------------------------------------------------------|
B|------------------------------------------------------|
G|-11fb----------------------r--------9~~~~~~~~~~~~~~~~-|
D|------------------------------------------------------|
A|------------------------------------------------------|
E|------------------------------------------------------|
  horse and i don`t know why you`d be bringing me down

A5                          E5                        A5
i`d like to think that our love`s worth a tad more it may sound
               E5
funny but you`d think by now i`d be
 A5     E5               A5
smiling Ooh yeah i`d be smilin`

  E5             A5               E5             A5
E|-----------------------------------------------------------|
B|-------------------------------------------12--------------|
G|-9rfb---------(9)~~~~~~(9)/13-(13)-------------------------|
D|-----------------------------------------------14fb-----r--|
A|-----------------------------------------------------------|
E|-----------------------------------------------------------|
  no way i`d be smiling             ooh        smil  -  lin`

E|-------------------------------------------------------------|
B|----------------------19---17-16-17---16~~~~----------19-----|
G|---------------------------------------------18fb--18----r18-|
D|-9/119~~~~~~~~-(9)/------------------------------------------|
A|-------------------------------------------------------------|
E|-------------------------------------------------------------|

E|-----------------------------------------|
B|----------------19-----------------------|
G|-16-18-16-18fb-----16----------16--------|
D|---------------------------18------19fb-~|
A|-----------------------------------------|
E|-----------------------------------------|

A5                B5 G#5  F#5     G#5   A5  G#5 A5 G#5 A5 B5 E5
sick of this life, not that you`d care i`m not the only one with
                      F#5 G5 G#5 A5
whom these feelings i share

Version 2: (intro)

Tune down half step

   A5                  B5               G#5         F#5 G#5  A5
E|-----------------------|----------------|--------------------|
B|-----------------------|----------------|--------------------|
G|-----------------------|----------------|--------------------|
D|-7----7---------7----9-|-9------9-----6-|-6-------4-/-6----7-|
A|-7----7---------7----9-|-9------9-----6-|-6-------4-/-6----7-|
E|-5----5----x----5----7-|-7---x--7-----4-|-4---x---2-/-4----5-|
  Sick of this life not that you`d care

        G#5 A#5 G#5 A#5         B5            E5
E|--------------------|------------------|---------------------|
B|--------------------|------------------|---------------------|
G|--------------------|------------------|---------------------|
D|-7----6-/-7---6-/-7-|-7-----7--9--9----|-9--2--2-----2-----2-|
A|-7----6-/-7---6-/-7-|-7-----7--9--9----|-9--2--2-----2-----2-|
E|-5-x--4-/-5---4-/-5-|-5--x--5--7--7--x-|-7--0--0--0--0--0--0-|
  I`m not the only one with whom these feelings I share

         F#5   G    G#5   A5          B5    C#5 G#5    A5  B5 A5
E|--------------------------|-----------------|----------------|
B|--------------------------|-----------------|----------------|
G|--------------------------|-----------------|----------------|
D|-2------------------------|-7----7--9-9---11|-6-6---7-/-9--7-|
A|-2--2--4--4--5--5--6--6--7|-7----7--9-9---11|-6-6---7-/-9--7-|
E|-0--0--2--2--3--3--4--4--5|-5-x--5--7-7-x--9|-4-4-x-5-/-7--5-|
  Nobody understands quite why we`re here...

Тональность:

Это должно быть в ТОП-листе! - Топ-лист композиций



Назад
Рекомендуем посмотреть другие песни исполнителя «Guns N Roses»:

  • Комменты Fb ()
  • Комменты ВК



Добавить в Избранное Браузера
Сохранить здесь Очистить


x

0


+
-

+
-

-

Авторизация





Зарегистрироваться

M

Дата и время

  • 16:26:16
     

Социальные ссылки


Наши приложения

  • Muzbank App Play Market
  • Muzbank Amazon App