MUZBANK


МУЗЫКАЛЬНО-ИНФОРМАЦИОННЫЙ БАНК





GGuns N Roses • Estranged (аккорды и текст - chords & lyrics)


452

Print

Видео «Estranged (Guns N Roses)»

Видео клипы к песне подбираются автоматически сайтом youtube. Возможны некоторые несоответствия клипов песне.

↑ Спрятать рекламу ↑






Gm7         C              Gm7         C
E|---|----|------|--------|-----|----|------|--------|---------|
B|---|----|------|--------|-----|----|------|--------|---------|
G|---|----|------|--------|-----|----|------|--------|-----12b-|
D|---|----|------|--------|-----|----|------|--------|---------|
A|---|-10-|-(10)-|-(10)s3-|--3--|-10-|-(10)-|-(10)s3-|-(3)-----|
E|---|----|------|--------|-----|----|------|--------|---------|

 G5                                 C5
E|-----------|-------13b-10-----|-----------13-----|-----------|
B|----11-15b-|----11---------13-|-13-13-13b----13b-|-13--(13)s-|
G|-12--------|-12---------------|------------------|-----------|
D|-----------|------------------|------------------|-----------|
A|-----------|------------------|------------------|-----------|
E|-----------|------------------|------------------|-----------|

 G5                                      C5
E|------------------|-------13b---10-----|-------------13------|
B|-----11--15b-(15)-|----11----------13b-|-13-(13)-13b----13---|
G|-s12--------------|-12-----------------|---------------------|
D|------------------|--------------------|---------------------|
A|------------------|--------------------|---------------------|
E|------------------|--------------------|---------------------|

                           Bb5             C5          G5
E|-----------------------|---------13----|------------|--------|
B|-13--13b15p11-13p11----|-11--13b----13-|-13-13--12b-|(12)bbbb|
G|--------------------12-|---------------|------------|--------|
D|-----------------------|---------------|------------|--------|
A|-----------------------|---------------|------------|--------|
E|-----------------------|---------------|------------|--------|

                       Bb5            C5          G5
E|--------------------|--------13----|-----------|------|------|
B|(12)-13p12-13b13p12-|-11-13b----13-|-13-13-----|------|------|
G|--------------------|--------------|-------14b-|-(14)-|-(14)-|
D|--------------------|--------------|-----------|------|------|
A|--------------------|--------------|-----------|------|------|
E|--------------------|--------------|-----------|------|------|

 Riff A
  Eb5 F5          G5                    C5           Eb5   F5
E|--|------------|--------------------|------------------------|
B|11|-(11)-(11)s-|---------13s15-(15)s|-------13s15-(15)-13p12-|
G|--|------------|------12------------|----12------------------|
D|--|------------|---12---------------|-10---------------------|
A|--|------------|10------------------|------------------------|
E|--|------------|--------------------|------------------------|

  G5                             Eb5  F5    G5
E|-------------------|---------------------|-------------------|
B|13p12----(15)-(15)s|-----13s15-(15)-13p12|13p12-------15-(15)|
G|-----12------------|---12----------------|------12-----------|
D|-------12----------|10-------------------|---------12--------|
A|-------------------|---------------------|-------------------|
E|-------------------|---------------------|-------------------|

                (end Riff A)
  Eb5 F5  G5    Eb5 F5     Gm   F      Eb     G
E|------|-----|----------|----|------|------|------|-----15-17b|
B|15s13-|-13b-|-11-11p10-|----|------|------|------|-----------|
G|------|-----|----------|-12-|-(12)-|-(12)-|-(12)-|-(12)------|
D|------|-----|----------|----|------|------|------|-----------|
A|------|-----|----------|----|------|------|------|-----------|
E|------|-----|----------|----|------|------|------|-----------|

  F      Eb                           G5  F5           G5
E|-(17)-|---------------------|----------|------------|------|
B|------|-s13--11-10---11br10s|8------8--|------------|------|
G|------|---------------------|----------|-10b---(10)-|-(10)-|
D|------|---------------------|----------|------------|------|
A|------|---------------------|----------|------------|------|
E|------|---------------------|----------|------------|------|

F5                                   G5
And what more could you ask from me?

F5
How could you say that I never need-

G5          Eb5                   D5
-ed you_    when you took everything

F5
said you took everything from me?

 w/Riff A
  G5        C5 Eb5    F5  G5        C5   Eb5     F5 G5   Eb5 F5
E|---------|-------------|---------|---------------|----|------|
B|---------|-------------|---------|---------------|----|------|
G|---------|-------------|---------|---------------|----|------|
D|---------|---1-1-1-1-3-|-5-------|-----1-1-1-1-3-|-5--|--(5)-|
A|---5-6-5-|-3-----------|---5-6-5-|--3------------|----|------|
E|-3-------|-------------|---------|---------------|----|------|

   G5   Eb5  Gm    F      Eb     Gm                    F
E|---|-----|----|------|------|------|-----15-15s17-|-18-18s20-|
B|---|-----|----|------|------|------|--------------|----------|
G|---|-----|-12-|-(12)-|-(12)-|-(12)-|-(12)---------|----------|
D|(5)|-(5)-|----|------|------|------|--------------|----------|
A|---|-----|----|------|------|------|--------------|----------|
E|---|-----|----|------|------|------|--------------|----------|

  Eb                 Gm   Gm7               C
E|-(20)-18-17-18-15-|-15-|-(15)----|-(15)-|------------|-------|
B|------------------|----|---------|------|------------|-------|
G|------------------|----|---------|------|------------|----12b|
D|------------------|----|---------|------|------------|-------|
A|------------------|----|------10-|-(10)-|-(10)-10-s3-|-(3)---|
E|------------------|----|---------|------|------------|-------|

  G5                                C5
E|-------------|-------13b--10-----|---------------13----|
B|----11--15b--|----11---------13b-|-13--(13)-13b-----13-|
G|-12----------|-12----------------|---------------------|
D|-------------|-------------------|---------------------|
A|-------------|-------------------|---------------------|
E|-------------|-------------------|---------------------|

                              Bb5               C5
E|--------13----------------|----------13----|-----------------|
B|-13-13b----13br(13)p11----|-11---13b----13-|-(13)---13---12b-|
G|-----------------------12-|----------------|-----------------|
D|--------------------------|----------------|-----------------|
A|--------------------------|----------------|-----------------|
E|--------------------------|----------------|-----------------|

  G5                           Bb5             C5
E|----------|-----------------|----------13---|--------13-15-|
B|-(12)-----|-------13p12--12-|-11--13b----13-|-13-13b-------|
G|-------14b|-(14)------------|---------------|--------------|
D|----------|-----------------|---------------|--------------|
A|----------|-----------------|---------------|--------------|
E|----------|-----------------|---------------|--------------|

  G5                    C5
E|-(15)-|-(15)---13p12-|-----|------||
B|------|--------------|-13--|--13--||
G|------|--------------|-----|------||
D|------|--------------|-----|------||
A|------|--------------|-----|------||
E|------|--------------|-----|------||

 (Bass gtr & piano)

  C5         Eb5                C5        Eb5
E|-----------|-----------------|---------|---------------------|
B|-----------|--------4-4p3----|3--------|---------4-4p3-4p3---|
G|-----5-----|------3-------5p3|----5----|-------3----------5p3|
D|---5-------|--3h5------------|--5------|---3h5---------------|
A|-3-----3-5-|6----------------|------3-5|-6-------------------|
E|-----------|-----------------|---------|---------------------|

  C5          Eb5               Bb    F             C
E|-----------|-----------------|----|-1-----------|-0----------|
B|-3---------|---------4-3-----|-3--|-1-----------|-1--------1-|
G|-----5-----|-------3-----5-3-|----|-2---------2-|-0------0---|
D|---5-------|---3-5-----------|----|-3-------3---|-2----2-----|
A|-------3-5-|-6---------------|----|-3-----3-----|-3--3-------|
E|-----------|-----------------|----|-1---1-------|------------|

   G             Bb    C    Bb  C   Bb  F           G/F
E|-------------|----|-----|---|-0-|---|-----------|------------|
B|-3-----------|-3--|--1--|-3-|-1-|-3-|-1---------|-3----------|
G|-0---------0-|-3--|--0--|-3-|-0-|-3-|-2-------2-|-0--------0-|
D|-0-------0---|-3--|--2--|-3-|-2-|-3-|-3-----3---|-0------0---|
A|-2-----2-----|-1--|--3--|-1-|-3-|-1-|-3---3-----|-2----2-----|
E|-3---3-------|----|-----|---|---|---|-1-1-------|-3--3-------|

  Bb/F          F               C           G              Bb/F
E|------------|---------------|------------|--------------|----|
B|-3--------3-|-1---------1---|-1--------1-|-3------------|-1--|
G|-3------3---|-2-------2---0-|-0------0---|-0--------0-0-|-3--|
D|-3----3-----|-3-----3-------|-2----2-----|-0------0-----|-3--|
A|-1--1-------|-3---3---------|-3--3-------|-2----2-------|-3--|
E|------------|-1-------------|------------|-3--3---------|-1--|

                             C G F
E|-------------------------|-0-|
B|-------------------------|-1-|
G|-------------------------|-0-|
D|-------3-------------3---|-2-|
A|-------------------------|-3-|
E|-1--1----1--1--1--1----1-|---|

                        C                           G
E|--------------------|-0--|-----------|-0--------|------------|
B|--------------------|-0--|--1--1-----|-1--------|-3----------|
G|--------------------|-0--|--0-----0--|-0------0-|-0--------0-|
D|-----3----------3---|-2--|--2--------|-2----2---|-0------0---|
A|--------------------|-3--|--3--------|-3--3-----|-2----2-----|
E|-1-1---1-1-1-1----1-|----|-----------|----------|-3--3-------|

   F          C          G            F             C
E|-----------|-0-------|------------|------------|--0----------|
B|-1-------1-|-1-------|-3----------|-1--------1-|--1--------1-|
G|-2-----2---|-0-----0-|-0--------0-|-2------2---|--0------0---|
D|-3---3-----|-2---2---|-0------0---|-3----3-----|--2----2-----|
A|-3-3-------|-3-3-----|-2----2-----|-3--3-------|--3--3-------|
E|-1---------|---------|-3--3-------|-1----------|-------------|

   G  F    C             G            F            C
E|------|--0----------|-------------|------------|-0-----------|
B|-3--1-|--1--------1-|--3----------|-1--------1-|-1---------1-|
G|-0--2-|--0------0---|--0--------0-|-2------2---|-0-------0---|
D|-0--3-|--2----2-----|--0------0---|-3----3-----|-2-----2-----|
A|-2--3-|--3--3-------|--2----2-----|-3--3-------|-3---3-------|
E|-3--1-|-------------|--3--3-------|-1----------|-------------|

  G             F            C           G   F
E|------------|------------|-----------|-------||
B|-3----------|-1--------1-|-1-------1-|-3---1-||
G|-0--------0-|-2------2---|-0-----0---|-0---2-||
D|-0------0---|-3----3-----|-2---2-----|-0---3-||
A|-2----2-----|-3--3-------|-3-3-------|-2---3-||
E|-3--3-------|-1----------|-0---------|-3---1-||

 Guitar solo I
  C                           Am
E|---------------------------|---------------------------|
B|---------------------------|---------------------------|
G|-5----------------5h7p5----|--5b---5-----------5h7p5---|
D|-------------5h7--------(7)|--------------5h7-------(7)|
A|---------------------------|---------------------------|
E|---------------------------|---------------------------|

  C                            F
E|---------------------------|------------------------------|
B|-8-------------------------|----------------------------6-|
G|-----7b---7--5h7p5s4-5p4---|------------------------5s7---|
D|-------------------------5-|--5b-3-5---3--5--3--5s7-------|
A|---------------------------|---------5--------------------|
E|---------------------------|------------------------------|

                                        C
E|-----6---6------8-8-8-----8-----8----|-----------------------|
B|-6s8---8---8s10-------11b---11b---11b|-11--------------------|
G|-------------------------------------|----------17h19p17-----|
D|-------------------------------------|----17h19---------(19)-|
A|-------------------------------------|-----------------------|
E|-------------------------------------|-----------------------|

     G                                     F
E|---------------------------------|---------------------------|
B|---------------------------------|-----20-------------20p18--|
G|-17b--17----------17h19p17-------|-19b------17-17--19--------|
D|----------17h19-------------(19)-|---------------------------|
A|---------------------------------|---------------------------|
E|---------------------------------|---------------------------|

E|-----------------------------------|-------------------------|
B|18p17-18p17-18p17----17---17-------|--------17-18-20-18b-----|
G|------------------19---19b--19-17--|19b~-19--------------17b~|
D|---------------------------------19|-------------------------|
A|-----------------------------------|-------------------------|
E|-----------------------------------|-------------------------|

Pre-solo
   /-w/delay-------F5------------
E|------------------------|------------------------------------|
B|13b-13b-------------13b-|15b-15-p13--15b--15b-15-13--13-15-13|
G|--------12b-12b-12b-----|----------14---14---------14--------|
D|------------------------|------------------------------------|
A|------------------------|------------------------------------|
E|------------------------|------------------------------------|

 Guitar solo II
  C5                              G5
E|------18----------18-----------|----18----------18-----------|
B|-18b-----18----18----18--16----|-18b---18----18----18--16----|
G|----------------------------17-|--------------------------17-|
D|-------------------------------|-----------------------------|
A|-------------------------------|-----------------------------|
E|-------------------------------|-----------------------------|

  F5                       C5      G5           C5
E|---------------------|-------------------|-------------------|
B|-15-15---------------|-------------------|-------------------|
G|-------17-15---------|-------------------|-------15----------|
D|-------------17-15-13|----15b----------13|(13)-15b-15b-13-15b|
A|---------------------|-15--------13h15---|-------------------|
E|---------------------|--------15---------|-------------------|

  G5
E|---------------------------------------15---|
B|---------------------15h16p15--15-16-18--18-|
G|------15-17-17--15-17--------17-------------|
D|-15-17--------17----------------------------|
A|--------------------------------------------|
E|--------------------------------------------|

  F5
E|-18--15h18p15--15---------------------|
B|---18--------15---18b--18--16--16-----|
G|-----------------------------17--17p15|
D|--------------------------------------|
A|--------------------------------------|
E|--------------------------------------|

E|---------------------------------|
B|---------------------------------|
G|-17-17-15--15--------------------|
D|---------17--17-15-13-15-13----15|
A|---------------------------15-13-|
E|---------------------------------|

  C5
E|------|------|-------------|
B|------|------|----------13-|
G|------|------|-------12----|
D|-(15)-|-(15)-|----14-------|
A|------|------|-15----------|
E|------|------|-------------|

  G               F             C
E|--------------|-------------|---------10s12-|
B|-12--------12-|-10-------10-|-8-------------|
G|-12------12---|-10-----10---|-9-------------|
D|-12----12-----|-10---10-----|-10------------|
A|-10--10-------|-8---8-------|---------------|
E|--------------|-------------|---------------|

  G                 F            C                G5
E|--10------------|------------|-0------------|-0--||
B|----------13s15-|--10--13s15-|-1s13---------|-1--||
G|-------12-------|------------|-0------------|-0--||
D|-----10---------|------------|-2------------|-2--||
A|----------------|------------|-3----0-------|-3--||
E|----------------|------------|---------3--0-|----||

A5               G5                 F5      G5
I knew the storm was getting clo-        er
A5                G5               F5       G5
And all my friends said I was high._________
A5            G5             F5
But evrything we`ve ever known`s here.
 G5 A5     G5            F5 E
I never wanted it to die

Тональность:

Это должно быть в ТОП-листе! - Топ-лист композиций



Назад
Рекомендуем посмотреть другие песни исполнителя «Guns N Roses»:

  • Комменты Fb ()
  • Комменты ВК



Добавить в Избранное Браузера
Сохранить здесь Очистить


x

0


+
-

+
-

-

Авторизация





Зарегистрироваться

M

Дата и время

  • 20:03:52
     

Социальные ссылки


Наши приложения

  • Muzbank App Play Market
  • Muzbank Amazon App