MUZBANK


МУЗЫКАЛЬНО-ИНФОРМАЦИОННЫЙ БАНК





GGuns N Roses • Fun (аккорды и текст - chords & lyrics)


366

Print

Видео «Fun (Guns N Roses)»

Видео клипы к песне подбираются автоматически сайтом youtube. Возможны некоторые несоответствия клипов песне.

↑ Спрятать рекламу ↑





Gilby parts
E|-------------------------------------------------------------|
B|-------------------------------------------------------------|
G|---4-------4-------7-------2-------4-------4-------4-------4-|
D|-4---4---4-------7---7---2---2---5---5---5---5---4---4---4--4|
A|2------2-----4-5-------0-----------------------2-------2-----|
E|-------------------------------3-------3---------------------|

Slash parts
E|---------------------------------------------------5---7-5-7-|
B|------------------------------------------5-/-7--------------|
G|---------------------------2---4------4---7---7--------------|
D|---------------------2-4-------------------------------------|
A|-2----------2-4-5--------------------------------------------|
E|-------------------------------------------------------------|

                                               and so...
E|------10-p12-b14---14-r12-10-b12-r10-----10-----------|
B|-12-----------------------------------------12-10-b12-|
G|------------------------------------------------------|
D|------------------------------------------------------|
A|------------------------------------------------------|
E|------------------------------------------------------|

Тональность:

Это должно быть в ТОП-листе! - Топ-лист композиций



Назад
Рекомендуем посмотреть другие песни исполнителя «Guns N Roses»:

  • Комменты Fb ()
  • Комменты ВК



Добавить в Избранное Браузера
Сохранить здесь Очистить


x

0


+
-

+
-

-

Авторизация





Зарегистрироваться

M

Дата и время

  • 00:04:04
     

Социальные ссылки


Наши приложения

  • Muzbank App Play Market
  • Muzbank Amazon App