MUZBANK


МУЗЫКАЛЬНО-ИНФОРМАЦИОННЫЙ БАНК





GGuns N Roses • Knockin` On Heavens Door (аккорды и текст - chords & lyrics)


904

Print

Видео «Knockin` On Heavens Door (Guns N Roses)»

Видео клипы к песне подбираются автоматически сайтом youtube. Возможны некоторые несоответствия клипов песне.

↑ Спрятать рекламу ↑






fill 2 (used on intro and verses)
   G5            D
E|-3---3--------------2-0-------|
B|-3-----3---3------3-----3---3-|
G|-0-------0------2---------2---|
D|-0------------0---------------|
A|------------------------------|
E|-3----------------------------|

 C
E|-----------------0--------------------|
B|----------1--------------1------------|
G|-0------0---0----------0---0-0------0-|
D|-0h2----------2------2-------0h2------|
A|------3---------------------------3---|
E|--------------------------------------|

fill 1 (used only in verses)
   G5              D
E|-3--------------2-------2-0-------|
B|-3---3-------3--3-------3-------0-|
G|-0---0-----0----2----2-------2----|
D|-0---0-----0----0----0------------|
A|----------------------------------|
E|-3--------------------------------|

 Am
E|-0-------------0---------------------|
B|-1----0h1-------------1--------------|
G|-2--2-----2---------2---2------0---0-|
D|-2----------2-----2-------0h2----2---|
A|-0-----------------------------------|
E|-------------------------------------|

Song goes like this:

Intro: Twice with picking fill 2  G5 D C
       Twice just power chords    G5 D C

Verse 1 (with fill 1)
G5         D               Am
Mamma take this badge from me

        (with fill 2)
G5         D         C
I can`t use it anymore

        (with fill 1)
G5                D             Am
It`s getting dark, too dark to see

        (with fill 2)
G5             D                       C
Feels like I`m knockin` on heaven`s door

Chorus:
G5            D5                     C5
Knock, knock, knockin` on heaven`s door,
C5
Hey, hey, hey, hey, yeah
G5            D5                     C5
Knock, knock, knockin` on heaven`s door,
C5
(no lyrics)
G5                 D5                     C5
Ooh, knock, knock, knockin` on heaven`s door
C5
Ooh yeah
G5            D5                     C5
Knock, knock, knockin` on heaven`s door
C5
Hey, hey, hey, hey, yeah

 Solo 1: (over G D and C chords)
E|--------------------------------------------------------|
B|--------------------15fb--------------------------------|
G|-12-14fb-14p12-14---------14-12-12~~~----------------12-|
D|------------------------------------------13/14---------|
A|--------------------------------------------------------|
E|--------------------------------------------------------|

E|-------------------------------------------------------15----|
B|-15/17--15---13p12-13/15--13p12---13p12----------12-13----13-|
G|-------------------------------------------------------------|
D|-----------------------------------------14~~~---------------|
A|-------------------------------------------------------------|
E|-------------------------------------------------------------|

E|--------------15-17fb--17--17fb--17fb--15----20fb-20p19-20-|
B|12~~~---15/17----------------------------------------------|
G|-----------------------------------------------------------|
D|-----------------------------------------------------------|
A|-----------------------------------------------------------|
E|-----------------------------------------------------------|

E|-19-20fb-20-20-20--------------------------------------------|
B|------------------17~~---------------------------------------|
G|-----------------------19fb-19-19fb-19-----------------------|
D|---------------------------------------19fb-19-19fb-19-------|
A|-------------------------------------------------------17-17-|
E|-------------------------------------------------------------|

 Solo 2:
E|-----------------------------------------------------|
B|--19b~~~~~~~r-19---19brp17-19-1717----20-17--20-17br-|
G|-----------------------------------------------------|
D|-----------------------------------------------------|
A|-----------------------------------------------------|
E|-----------------------------------------------------|

E|----------------------------------------16---18b-18p16-|
B|-1517--1517--------1517---------------13--16-----------|
G|-----------------------------------/13-----------------|
D|-----17----19br1719----19br19br17----------------------|
A|-------------------------------------------------------|
E|-------------------------------------------------------|

E|-16-18p16-16-20-19-20-22b-20-19-20-22b--20-19-20-22b-22b-22b-|
B|-------------------------------------------------------------|
G|-------------------------------------------------------------|
D|-------------------------------------------------------------|
A|-------------------------------------------------------------|
E|-------------------------------------------------------------|

E|--------|
B|-20-22b-|
G|--------|
D|--------|
A|--------|
E|--------|

E|-------------------------------------------------------------|
B|--20-22br-20-22-22b-20-22-20--20~~---20-19--19br-17-19-17-17-|
G|-------------------------------------------------------------|
D|-------------------------------------------------------------|
A|-------------------------------------------------------------|
E|-------------------------------------------------------------|

E|------------------------------------------------------|
B|-2017--17~~15~~12~~~~~~-------------------------------|
G|------------------------12~--11~---11br-9~---7--5/4---|
D|----------------------------------------------------5-|
A|------------------------------------------------------|
E|------------------------------------------------------|

   Solo 2 (another version)
E|-------------------------------------------------------------|
B|-------20~~-20-19~~-19b(20)r19-17-19p17-17~~--20-15b(17)--20-|
G|-17----------------------------------------------------------|
D|----17-------------------------------------------------------|
A|-------------------------------------------------------------|
E|-------------------------------------------------------------|

E|----------------------15---------------------15--------------|
B|15b(17)r(15)-13-15-12~---15-10b(12)r10---------15-10/12-10/12|
G|---------------------------------------12/14-----------------|
D|-------------------------------------------------------------|
A|-------------------------------------------------------------|
E|-------------------------------------------------------------|

E|------------15--17/19-17p15h17p15-20p19-20b(22)-20p19-20b(22)|
B|----------15--15---------------------------------------------|
G|-12~-14/16---------------------------------------------------|
D|-------------------------------------------------------------|
A|-------------------------------------------------------------|
E|-------------------------------------------------------------|

                                  (Hold bend)
E|-20p19-20-22b(24)-22b(24)-----------22-----------------------|
B|--------------------------20-22b(24)--22-r22-20-22pb(24)r22b-|
G|-------------------------------------------------------------|
D|-------------------------------------------------------------|
A|-------------------------------------------------------------|
E|-------------------------------------------------------------|

E|-----------|
B|(24)r22-20-|
G|-----------|
D|-----------|
A|-----------|
E|-----------|

E|-------------------------------------------------------------|
B|-20~-20-19-19b(20)r19-17-19p17--17~-20-15b(17)-20-15b(17)-13-|
G|-------------------------------------------------------------|
D|-------------------------------------------------------------|
A|-------------------------------------------------------------|
E|-------------------------------------------------------------|

E|--------------------------------------------------------|
B|-15-12~~------------------------------------------------|
G|--------12~~~--11~~~-11b(12)r11/9--9~~~-----------------|
D|---------------------------------------12~~9b(10)r9-----|
A|-----------------------------------------------------10-|
E---------------------------------------------------------|

Тональность:

Это должно быть в ТОП-листе! - Топ-лист композиций



Назад
Рекомендуем посмотреть другие песни исполнителя «Guns N Roses»:

  • Комменты Fb ()
  • Комменты ВК



Добавить в Избранное Браузера
Сохранить здесь Очистить


x

0


+
-

+
-

-

Авторизация





Зарегистрироваться

M

Дата и время

  • 16:23:25
     

Социальные ссылки


Наши приложения

  • Muzbank App Play Market
  • Muzbank Amazon App