MUZBANK


МУЗЫКАЛЬНО-ИНФОРМАЦИОННЫЙ БАНК





GGuns N Roses • Nice Boys (аккорды и текст - chords & lyrics)


412

Print

Видео «Nice Boys (Guns N Roses)»

Видео клипы к песне подбираются автоматически сайтом youtube. Возможны некоторые несоответствия клипов песне.

↑ Спрятать рекламу ↑






 Intro
E|-------------------------------------------------------------|
B|-/16-16-16-16-16------------14----14-----------9------9------|
G|-/16-16-16-16----16------------14----14------9---9------8/9--|
D|-/16-16-16-16-------16--/14------------14-/9-----9---------9-|
A|-------------------------------------------------------------|
E|-------------------------------------------------------------|

E|-------------------------------------------------------------|
B|-9-9------/16-16-16-16--------/14-14-14-14--------20/21------|
G|-9-9-8/9--/16-16-16-16-16-----/14-14-14-14-14-----------21---|
D|----------/16-16-16-16----16-/14-14-14-14-----14/---------21-|
A|-------------------------------------------------------------|
E|-------------------------------------------------------------|

E|-------------------------------------------------------------|
B|-20/21---------/16-16-16-16--------------/14-14-14-14--------|
G|-------21------/16-16-16-16----16--------/14-14-14-14--14----|
D|----------21--/16-16-16-16-------16----/14-14-14-14------14/-|
A|-------------------------------------------------------------|
E|-------------------------------------------------------------|

E|-----------------97-(7)------------------------------------|
B|-------9-(9)-------------97---7/9--/16-16-16-16------------|
G|-97----------9---------------9------/16-16-16-16----16-----|
D|-----9-------------------------------/16-16-16-16-------16-|
A|-----------------------------------------------------------|
E|-----------------------------------------------------------|

E|-----------------------------|
B|-/14-------14-14----21-21~~~-|
G|--/14-14-------14------------|
D|--/14----14----14/21---------|
A|-----------------------------|
E|-----------------------------|

verse 1,2,3
B5                  A5           E5
she hit town like a rose in bloom,
                                 A5 B5
smellin sweet said sweet perfume
                         A5        E5
the colour faded and the petals died,
                             A5 D
down in the city no one cried
                              E5(7)           E    E5(7)  E
in the streets the garbage lies protected by a million flies
    B5                      A5                 E5
the roaches so big you know that they got bones
     E6  E E5      E6  E E5   E6   E5
theY moved in and made a tenement home

CHORUS:
    A5  B5                           A5   B A B A A
i said nice boys don`t play rock and roll
B5                              A5           E5
nice boys don`t play rock and roll i`m not a nice boy
    A5  B5                           A5   B A B A A
i said nice boys don`t play rock and roll
B5                              A5
nice boys don`t play rock and roll
          E5
i`m not a nice boy and i never was

[VERSE 2]

[CHORUS]

 Slide guitar solo
E|-------------------------------------------------------------|
B|-------------------------------------------------------------|
G|-1614-------14~-14------1413-----14-14-----------------------|
D|------14/16--------14-14-----13/14-----14-14-1412------14-14-|
A|--------------------------------------------------12/14------|
E|-------------------------------------------------------------|

E|-------|
B|-------|
G|-------|
D|-------|
A|-14-14-|
E|-------|

E|-------------------------------------------------------------|
B|8/9---9-(9)/-----------16-----------------14---------------21|
G|8/9-9-------1614---------16----1413--------14---------21-21--|
D|-----------------14/16------16------13/14----14-14/21--------|
A|-------------------------------------------------------------|
E|-------------------------------------------------------------|

E|-------------------------------------------------------------|
B|---------19/21-----------17/18-(18)/(19)-----16-(16)/17-19/21|
G|21----21------21----19/20---------------17/18----------------|
D|---21------------21------------------------------------------|
A|-------------------------------------------------------------|
E|-------------------------------------------------------------|

E|---------------24-24------------------17-------/19/24--(24)~-|
B|----------------------/16/19-19-16/17-----17------24--(24)---|
G|-21----------------------------------------------------------|
D|----2119/21/x/-----------------------------------------------|
A|-------------------------------------------------------------|
E|-------------------------------------------------------------|

[verse 3]

[chorus] 3x

Тональность:

Это должно быть в ТОП-листе! - Топ-лист композиций



Назад
Рекомендуем посмотреть другие песни исполнителя «Guns N Roses»:

  • Комменты Fb ()
  • Комменты ВК



Добавить в Избранное Браузера
Сохранить здесь Очистить


x

0


+
-

+
-

-

Авторизация





Зарегистрироваться

M

Дата и время

  • 06:01:35
     

Социальные ссылки


Наши приложения

  • Muzbank App Play Market
  • Muzbank Amazon App