MUZBANK


МУЗЫКАЛЬНО-ИНФОРМАЦИОННЫЙ БАНК





GGuns N Roses • Nightrain (аккорды и текст - chords & lyrics)


537

Print

Видео «Nightrain (Guns N Roses)»

Видео клипы к песне подбираются автоматически сайтом youtube. Возможны некоторые несоответствия клипов песне.

↑ Спрятать рекламу ↑






 Tune 1/2note down.
E|-------------------------------------------------------------|
B|-------------------------------------------------------------|
G|2-12-12-11-x11-9-9-9-7-x-7-5-7-7-7-5-x-5-4-5-4-2-0-2---------|
D|2-12-12-11-x9--9-7-7-7-x-5-3-5-5-5-5-x-3-2-3-2-0-0-2/7p.harm~|
A|-------------------------------------------------------------|
E|-------------------------------------------------------------|

E|-----------------------------------------------------|
B|-----------------------------------------------------|
G|-12-12-11-x-11-9-9-9-7-x-7-5-7-7-7-5-x-5-4-5-4-2-0-2-|
D|-12-12-11-x-9--9-7-7-7-x-5-3-5-5-5-5-x-3-2-3-2-2-0-2-|
A|-----------------------------------------------------|
E|-----------------------------------------------------|S.
 and then it`goes on A and G (5or7) chord with pinch harmonics.

[fill] An I can tell you honey,You can make my money tonight.
                                           p.harmonic.
E|----------------------------------------|-----------------|
B|----------------------------------------|-----------------|
G|---12-12-12-11-11-9-x-x-9-7-7-5-0-2-----|-----------------|
D|---12-12-12-11-9--9-x-x-7-7-5-5-0-2///--|--7~~5~~7^fb-5~~-|
A|----------------------------------------|-----------------|
E|----------------------------------------|-----------------|S.

Here is Another version:

1/2 Dropped Tuning

 Intro:
 Rhy. Fig. 1
E|--3---3--2--2--3--|--(3)----3--|--3--3--3--1--|--(1)----3--|
B|--5---5--3--3--5--|--(5)----5--|--5--3--3--1--|--(1)----3--|
G|--2---2--2--2--5--|--(5)----5--|--5--4--4--2--|--(2)----4--|
D|------------------|------------|--------------|---------5--|
A|------------------|------------|--------------|------------|
E|------------------|------------|--------------|------------|

                  End Rhy. Fig. 1
                        G5 A5
E|--------------------|
B|-3------------------|
G|-4-4-5-4-5-4-2-0-2-o| Here`s the catchy little intro riff.
D|-5---5-5-5-5-2-0-2-o| Play it twice through.
A|-----------------0--|
E|--------------------|

 Verse:
 Rhy. Fig. 2         End Rhy. Fig. 2  End on:
   A5   (NC) A5    (NC) A5      A5         D
E|-------------------------------------||--2-| Slash & Izzy
B|-------------------------------------||--3-| both do lots
G|-2-2-2-----2-2-2------2-2-2---2-2-2-o||--2-| of variations
D|-2-2-2-----2-2-2------2-2-2-x-2-2-2-o||--0-| to this riff
A|-0-0-0-----0-0-0------0-0-0-x-0-0-0--||----| so just im-
E|-------0-3--------0-3----------------||----| provise a bit.
    I`m a west-cost...
                                                 A5
E|--3----------------------|--------------------------|
B|--5----7--5--7--5--5--3--|--5----3------------------|
G|-------7--5--7--5--5--4--|--5----4----5------------o|
D|-------------------------|---------------7--5--/7--o|
A|-------------------------|---------------------/7---|
E|-------------------------|---------------------/5---|
  can tell you honey...

2nd Verse:
Rhy. Fig. 2
End Rhy. Fig. 2 w/Rhy. Fig. 1
Play G5 rather than A5 as the very last chord in Rhy. Fig. 1.

 Chorus:
 Rhy. Fig. 3a    End Rhy. Fig. 3a
E|-------------------------------|
B|-------------------------------|
G|------------------------------o| Listen to the recording
D|-7--------------7-------------o| for the riff changes...
A|-7--------------7--------------|
E|-5-5-8-5-8-5-3/-5-5-8-5-8-5-3--|
   Nightrain, bottom`s up...

 Rhy. Fig. 3b                      End Rhy. Fig. 3b
E|-------------------------------------------------|
B|-------------------------------------------------|
G|------------------------------------------------o|
D|-3----------------------3-----------------------o|
A|-3-------3--2--3--2--0--3-------3--2--3--2--0----|
E|-1----1-----------------1----1-------------------|
 ...burn, I never learn...

Outro Chorus:
 -Rhy. Fig. 3a
 -Rhy. Fig. 3b
 -Rhy. Fig. 3c

 Rhy. Fig. 3c   End Rhy. Fig. 3c
E|-----------------------------|
B|-----------------------------|
G|-----------------------------| Again, listen to the
D|-5-------------5-------------| recording for the riff
A|-5---3-2-3-2-0-5---3-2-3-2---| changes!
E|-3-3-----------3-3---------3-|

Тональность:

Это должно быть в ТОП-листе! - Топ-лист композиций



Назад
Рекомендуем посмотреть другие песни исполнителя «Guns N Roses»:

  • Комменты Fb ()
  • Комменты ВК



Добавить в Избранное Браузера
Сохранить здесь Очистить


x

0


+
-

+
-

-

Авторизация





Зарегистрироваться

M

Дата и время

  • 07:09:04
     

Социальные ссылки


Наши приложения

  • Muzbank App Play Market
  • Muzbank Amazon App