MUZBANK


МУЗЫКАЛЬНО-ИНФОРМАЦИОННЫЙ БАНК





GGuns N Roses • Only Women Bleed (аккорды и текст - chords & lyrics)


385

Print

Видео «Only Women Bleed (Guns N Roses)»

Видео клипы к песне подбираются автоматически сайтом youtube. Возможны некоторые несоответствия клипов песне.

↑ Спрятать рекламу ↑





Tune half step down
E|-------------------------------------------------------------|
B|---12----12----12----10----10----10-----10----10----10-----8-|
G|-------------------------------------------------------------|
D|-12----12----12----11----11----11-----10----10----10-----9---|
A|-------------------------------------------------------------|
E|-------------------------------------------------------------|

E|-------------------10---------------10-----------------9-----|
B|---8---8------12-----12--12-----12-----12---12-----10----10--|
G|------------0-----------0-----0-----------0------0---------0-|
D|-9---9---12------12--------12-----12----------11-----11------|
A|-------------------------------------------------------------|
E|-------------------------------------------------------------|

E|------|
B|-10---|
G|------|
D|---11-|
A|------|
E|------|

E|------9---------------8---------------8---------------7-----|
B|--10----10--10----10----10--10----10----10--10----8-----8---|
G|0---------0-----0---------0-----0---------0-----0---------0-|
D|----11--------10----10--------10----10--------9-----9-------|
A|------------------------------------------------------------|
E|------------------------------------------------------------|

E|-------|
B|-8-----|
G|-----0-|
D|---9---|
A|-------|
E|-------|

E|----7-----------------6---------------6---------------5-----|
B|8-----8---8-------8-----8---8-----8-----8---8-----6-----6---|
G|--------0-------0---------0-----0---------0-----0---------0-|
D|--9-----------8-----8---------8-----8---------7-----7-------|
A|------------------------------------------------------------|
E|------------------------------------------------------------|

E|-------|
B|-6-----|
G|-----0-|
D|---7---|
A|-------|
E|-------|

                                               C
E|----5---------------4---------------------------------------|
B|6-----6---6-----6-----6---6-----5-----4-----3-----------1---|
G|--------0-----0---------0-----------------------------0---0-|
D|--7---------6-----6---------/-5---/-4---/-3---0-H-2---------|
A|----------------------------------------------------3-------|
E|------------------------------------------------------------|

E|-------|
B|-------|
G|---0---|
D|-2-----|
A|-----1-|
E|-------|

                             G
E|----------------------------3-|
B|----------------------------3-|
G|--0-----0---0---------0-----0-|
D|3-----3---------------5-----0-|
A|----1-----1-----1-/-3-3-----2-|
E|----------------------------3-|

Тональность:

Это должно быть в ТОП-листе! - Топ-лист композиций



Назад
Рекомендуем посмотреть другие песни исполнителя «Guns N Roses»:

  • Комменты Fb ()
  • Комменты ВК



Добавить в Избранное Браузера
Сохранить здесь Очистить


x

0


+
-

+
-

-

Авторизация





Зарегистрироваться

M

Дата и время

  • 10:41:55
     

Социальные ссылки


Наши приложения

  • Muzbank App Play Market
  • Muzbank Amazon App