MUZBANK


МУЗЫКАЛЬНО-ИНФОРМАЦИОННЫЙ БАНК





GGuns N Roses • Sweet Child Mine (аккорды и текст - chords & lyrics)


337

Print

Видео «Sweet Child Mine (Guns N Roses)»

Видео клипы к песне подбираются автоматически сайтом youtube. Возможны некоторые несоответствия клипов песне.

↑ Спрятать рекламу ↑






 


Guns & Roses;  Sweet Child 0` Mine
 >From "Appetite for Destruction"
 
 Tabbed by Mike Stern; mstern82@hotmail.com
 January 3, 2000
 
 There is no special tuning for this tab, and I usually assume you can fill 
 in the rythm on your for whole filled bars of only one note.
 
 Intro:
 The guitar plays alone for a few bars, and then the bass comes in as;
 
 G: -------------4-----------|---------------------|-----|-----|
 D: ---4---4-5-7----7-5-4----|---5--3-2----3--2----|-----|-5---|
 A: -5---5-----------------5-|-3---------3-------3-|-----|-----|
 E: -------------------------|---------------------|-3---|-----|
 
 G: ------------------------------|
 D: --5-4---5--4-----5-4----5--4--|
 A: ------5-------5-------5-------|
 E: ------------------------------|
 
 Verse:
 The basic pattern for the verses goes like this;
 
 G: -------|-- 

Тональность:

Это должно быть в ТОП-листе! - Топ-лист композиций



Назад
Рекомендуем посмотреть другие песни исполнителя «Guns N Roses»:

  • Комменты Fb ()
  • Комменты ВК



Добавить в Избранное Браузера
Сохранить здесь Очистить


x

0


+
-

+
-

-

Авторизация





Зарегистрироваться

M

Дата и время

  • 19:21:39
     

Социальные ссылки


Наши приложения

  • Muzbank App Play Market
  • Muzbank Amazon App