MUZBANK


МУЗЫКАЛЬНО-ИНФОРМАЦИОННЫЙ БАНК





GGuns N Roses • Theme (аккорды и текст - chords & lyrics)


357

Print

Видео «Theme (Guns N Roses)»

Видео клипы к песне подбираются автоматически сайтом youtube. Возможны некоторые несоответствия клипов песне.

↑ Спрятать рекламу ↑





E|-------------------------------------------------------------|
B|-14-13-14-15-14-14----14-13-14-15-14-14---14-13-14-17^-14-13-|
G|-------------------14------------------13--------------------|
D|-------------------------------------------------------------|
A|-------------------------------------------------------------|
E|-------------------------------------------------------------|

E|--------|
B|-16^-14-|
G|--------|
D|--------|
A|--------|
E|--------|

E|----------------------------10-13-12-10-13-10-12-10----------|
B|-14^r------14^r----------10-------------------------11-13-10-|
G|------14^r------13-------------------------------------------|
D|-------------------------------------------------------------|
A|-------------------------------------------------------------|
E|-------------------------------------------------------------|

E|----10-13-12-10-13-10-12-10-----------------9-12^------9-10^-|
B|-10-------------------------5/10-9-8---8-11-------8-11-------|
G|-------------------------------------------------------------|
D|-------------------------------------------------------------|
A|-------------------------------------------------------------|
E|-------------------------------------------------------------|

Unsure about this. I modified it from the original score from
the godfather theme.

E|-------------------------------------|
B|-------13-11-10-13-11-11-11-10-------|
G|----10-------------------------------|
D|-12----------------------------11-12-|
A|-------------------------------------|
E|-------------------------------------|

E|-10-10-9-8-12-12-10----------------------------|
B|--------------------11-10---10-9-8---8h11-9-10-|
G|-----------------------------------------------|
D|-----------------------------------------------|
A|-----------------------------------------------|
E|-----------------------------------------------|

Тональность:

Это должно быть в ТОП-листе! - Топ-лист композиций



Назад
Рекомендуем посмотреть другие песни исполнителя «Guns N Roses»:

  • Комменты Fb ()
  • Комменты ВК



Добавить в Избранное Браузера
Сохранить здесь Очистить


x

0


+
-

+
-

-

Авторизация





Зарегистрироваться

M

Дата и время

  • 17:51:08
     

Социальные ссылки


Наши приложения

  • Muzbank App Play Market
  • Muzbank Amazon App