MUZBANK


МУЗЫКАЛЬНО-ИНФОРМАЦИОННЫЙ БАНК





GGuns N Roses • Word Up (аккорды и текст - chords & lyrics)


444

Print

Видео «Word Up (Guns N Roses)»

Видео клипы к песне подбираются автоматически сайтом youtube. Возможны некоторые несоответствия клипов песне.

↑ Спрятать рекламу ↑






   FB
E|----|
B|-7~-|
G|----|
D|----|
A|----|
E|----|

INTRO GUITAR:
E|-------------------------|----------------------------|
B|-------------------------|----------------------------|
G|-11-----X-X--11------X-X-|-9---9--X---9--------X----X-|
D|-11-----X-X--11------X-X-|-9---9--X---9--------X----X-|
A|--9-----X-X---9------X-X-|-7---7--X---7----7---X----X-|
E|-------------------------|----------------------------|

E|----------------------------|------------------------|
B|----------------------------|------------------------|
G|-7-----X-X---7--9---X-X---9-|-11--11-----X-X------11-|
D|-7-----X-X---7--9---X-X---9-|-11--11-----X-X------11-|
A|-5-----X-X---5--7---X-X---7-|--9---9-----X-X-------9-|
E|----------------------------|------------------------|

MAIN GUITAR RIFF:
|-----------------------|------------------------|
|-12-12-12-12--12----11-|-10-10-10-10--10------9-|
|-11-11-11-11--11----11-|--9--9--9--9---9------9-|
|-14-14-14-14--14----14-|-12-12-12-12--12------9-|
|-----------------------|------------------------|
|-----------------------|------------------------|

E|------------------------------|------------------------------|
B|-7---X-X---7-----9----X-X---9-|-11--11----------11--11-------|
G|-7---X-X---7-----9----X-X---9-|-11--11----------11--11-------|
D|-7---X-X---7-----9----X-X---9-|-11--11----------11--11-------|
A|------------------------------|----------9--9-------------/9-|
E|------------------------------|--------------------------/---|

E|---------------------------------|------------------------|
B|------12-12-12-12--12----11----X-|-10-10-10-10--10------9-|
G|-11---11-11-11-11--11----11----X-|--9--9--9--9---9------9-|
D|-11---14-14-14-14--14----14----X-|-12-12-12-12--12------9-|
A|--9------------------------------|------------------------|
E|---------------------------------|------------------------|

E|------------------------------|------------------------------|
B|------------------------------|-14---14------14--------------|
G|-7----X-X----7---9---X-X----9-|-14---14------14--------------|
D|-7----X-X----7---9---X-X----9-|----------16------------------|
A|-5----X-X----5---7---X-X----7-|----------------------/17-----|
E|------------------------------|---------------------/------X-|

The Verse is played by 2 guitars, one playing the Main guitar
riff and the second plays the same but an octave lower using a
drop D tuning.

GUITAR FILL ( CHORUS )
E|---------------------|------------------------------------|
B|---------------------|------------------------------------|
G|-14----------13---11-|-14----11-/-13--11-----------9-/-11-|
D|--X----------X-----X-|-X-----X----X----X-----------X----X-|
A|-12----------11----9-|-12-----9-/-11---9-----------7-/--9-|
E|---------------------|------------------------------------|

E|------|-------------------------|
B|------|-------------------------|
G|-(11)-|-(11)----14-------13--11-|
D|--(X)-|--(X)----X-----X--X----X-|
A|--(9)-|--(9)----12----X--11---9-|
E|------|-------------------------|

E|----------------------------|
B|----------------------------|
G|-14---------13--11----------|
D|--X------X---X----X---------|
A|-12-----X---11---9----------|
E|-------------------------17-|

GUITAR 1 : VERSE 2  ( DROP D TUNING )
E|-----------------|-----------------|------|-----------------|
B|-----------------|-----------------|------|-----------------|
G|-----------------|-----------------|------|-----------------|
D|-4-4-4-4-4-4-4-4-|-2-2-2-2-2-2-2-2-|-0--2-|-4-4-4-4-4-4-4-4-|
A|-4-4-4-4-4-4-4-4-|-2-2-2-2-2-2-2-2-|-0--2-|-4-4-4-4-4-4-4-4-|
E|-4-4-4-4-4-4-4-4-|-2-2-2-2-2-2-2-2-|-0--2-|-4-4-4-4-4-4-4-4-|

GUITAR 2 : VERSE 2
E|-------------------|-------------------|-------------------|
B|-------------------|-------------------|-------------------|
G|----------------2`-|----------------2`-|----------------2`-|
D|-4-----2--4--------|-4~~~--2--4--------|-4~~~--2-4-2-------|
A|-------------4-----|-------------4-----|-------------4-----|
E|-------------------|-------------------|-------------------|

                     RPT X4
E|-----------5`------------|
B|-------------7-5---------|
G|------/6---------6-5-4---|
D|-4~~~------------------7-|
A|-------------------------|
E|-------------------------|

GUITAR 1 : MIDDLE 8
				  RPT X8
E|------------------------------|
B|------------------------------|
G|------------------------------|
D|----4---4-------4---4-------4-|
A|------------------------------|
E|-4-----------4-----------4----|

GUITAR 2: MIDDLE 8
|---------|-------|-------|--------|-----|-----|----------|---|
|---------|-------|-------|--------|-----|-----|----------|---|
|-11----9-|-9---8-|-8-----|-7----6-|--6--|--5--|----------|---|
|--X----X-|-X---X-|-X-----|-X----X-|--X--|--X--|-9-7--6---|---|
|-11----9-|-9---8-|-8-----|-7----6-|--6--|--5--|----------|---|
|--X----X-|-X---X-|-X-----|-X----X-|--X--|--X--|-9-7--6---|-4-|
|--9----7-|-7---6-|-6-----|-5----4-|--4--|--3--|-X--X---X-|-X-|
|---------|-------|-------|--------|-----|-----|-7-5--4---|-2-|

GUITAR 3 : MIDDLE 8
E|-----------|--------------|--------------|------------|-----|
B|-----------|--------------|--------------|------------|-----|
G|-6------/9-|-(9)-------11-|-11--------14-|--14------9-|---9-|
D|-X-------X-|------------X-|--X---------X-|---X------X-|---X-|
A|-4------/7-|-(7)--------9-|--9--------12-|--12------7-|---7-|
E|-----------|--------------|--------------|------------|-----|

E|---------------|---------------------------|----|
B|---------------|---------------------------|----|
G|-8----------/7-|-7---------6---4---4-------|----|
D|-X-----------X-|-X---------X----X---X----7-|--7-|
A|-6----------/5-|-5---------4---2---2----X--|--X-|
E|---------------|-------------------------5-|--5-|

GUITAR SOLO;

E|-----------|-------------------|--------------------(2)-|
B|-----------|--4`---4--(4`)--4`-|--4`---4--(4`)----------|
G|-4-(6)-4-2-|--4`---4--(4`)--4`-|--4`---4--(4`)----------|
D|-----------|-------------------|------------------------|
A|-----------|-------------------|------------------------|
E|-----------|-------------------|------------------------|

E|----------------------------|-------------------------------|
B|----------------------------|-------------------------------|
G|-4-(6)-4-2-----2`-----------|--------2--4-------------------|
D|-----------4-2-----4--------|--2-----------4-(6)4/--X----/X-|
A|------------------------2/4-|-----4-----------------X----/X-|
E|----------------------------|-----------------------X----/X-|

E|--------------------------|----------------------------------|
B|-14-----------------------|-16-(17)--------------------------|
G|-14-(15)------------------|-16-(18)--14-----------------14---|
D|--------16--16~~~~~-14----|--------------16~~~---14-16----16-|
A|-----------------------16-|----------------------------------|
E|--------------------------|----------------------------------|

E|---------------------------------------|
B|---------17----------17------17--------|
G|-16-(18)----16-(18)-(18)-16-(18)-16-14-|
D|---------------------------------------|
A|---------------------------------------|
E|---------------------------------------|

E|-----------------------------14--|
B|-------------------------17-(19)-|
G|-16----14`------14---------------|
D|----16-------14----16~~~---------|
A|----------16---------------------|
E|---------------------------------|


E|-(14)-(14)------------14---------|---------------------14----|
B|-(19)-(17)-17-(19)~~~----(17)-14-|-17-(21)-17-17~~~~------17-|
G|---------------------------------|---------------------------|
D|---------------------------------|---------------------------|
A|---------------------------------|---------------------------|
E|---------------------------------|---------------------------|

E|-17-14----14-------14---------------------------------|
B|-------17--17-(19)----17-14---------------------------|
G|----------------------------17-16`14----16----14-(16)-|
D|-------------------------------------16----16---------|
A|------------------------------------------------------|
E|------------------------------------------------------|

E|---------------------------------|---------------------------|
B|------(14)----14`------14--------|---------------------------|
G|-------14-----14`------14--------|-1411-11-11----11/13---13--|
D|----14-------------16-----16--16-|--X--X--X--X-----X--X----X-|
A|-16------------------------------|-12-9--9--9-----9/11---11--|
E|---------------------------------|---------------------------|

E|-----------------------------|
B|-----------------------------|
G|-13-9-----9/119--------------|
D|--x--X-----X--X-X------------|
A|-11-7-----7/-97-----14-15-16-|
E|-----------------------------|

E|--------------------------------------|
B|-------------------------17---17------|
G|---------14--16--16-(18)(18)--16-(18)-|
D|-14--16----16--X----------------------|
A|---16--16-----------------------------|
E|--------------------------------------|

E|------------------------------------|
B|-17---------17----------------------|
G|----16-(18)----16-(18)-16-14--------|
D|-----------------------------16---X-|
A|------------------------------------|
E|------------------------------------|

GUITAR 1 : CHANT SECTION ( DROP D TUNING )

             RPT X8
E|-----------------|
B|-----------------|
G|-----------------|
D|-4-4-4-4-4-4---5-|
A|-4-4-4-4-4-4---5-|
E|-4-4-4-4-4-4---5-|

GUITAR 2 : CHANT SECTION

E|-------------|------------|-----------|-------------------|
B|-------------|------------|-----------|-------------------|
G|-------------|-3-------/7-|-6-------4-|-3---------------3-|
D|-4---------5-|-X--------X-|-X-------X-|-X-----5---5-----X-|
A|-X---------X-|-1-------/5-|-4-------2-|-1-----X---X-----1-|
E|-2---------3-|------------|-----------|-------3---3-------|

E|---------------|-----------|-----------|----|
B|---------------|-----------|-----------|----|
G|---------------|-3------/7-|-6-------9-|-11-|
D|-4-----------5-|-X-------X-|-X-------X-|--X-|
A|-X-----------X-|-1------/5-|-4-------7-|--9-|
E|-2-----------3-|-----------|-----------|----|

Тональность:

Это должно быть в ТОП-листе! - Топ-лист композиций



Назад
Рекомендуем посмотреть другие песни исполнителя «Guns N Roses»:

  • Комменты Fb ()
  • Комменты ВК



Добавить в Избранное Браузера
Сохранить здесь Очистить


x

0


+
-

+
-

-

Авторизация





Зарегистрироваться

M

Дата и время

  • 03:25:49
     

Социальные ссылки


Наши приложения

  • Muzbank App Play Market
  • Muzbank Amazon App