MUZBANK



A MOST COMPLETE BANK OF MUSIC INFORMATION

МУЗЫКАЛЬНО-ИНФОРМАЦИОННЫЙ БАНК







    GGuttermouth • Pee In The Shower (аккорды и текст - chords & lyrics)


    371

    Print

    Видео «Pee In The Shower (Guttermouth)»

    Видео клипы к песне подбираются автоматически сайтом youtube. Возможны некоторые несоответствия клипов песне.

    ↑ Спрятать рекламу ↑





     
    
    
    Guttermouth
    Pee In The Shower
    Tabbed By Daniel182
    
    Intro(00:05)
    G|-------------------------------------|
    D|-------------------------------------|
    A|-----77-7-44-4-5-7-----77-7-44-4-5-5-|x1
    E|-55-5--------------55-5--------------|
    
    Verse 1(00:10)
    G|-----------------------------------|
    D|-----------------------------------|
    A|----77-7-44-4-5-7----77-7-44-4-542-|x4
    E|-55-5------------55-5--------------|
    
    Chorus 1(00:29)
    G|-----------------------|
    D|-----------------------|
    A|----------44--------77-|x2
    E|-55-00-55---55-00-55---|
    
    Pre Verse(00:38)
    G|---------------------------------|  |------------------------------|
    D|---------------------------------|  |------------------------------|
    A|-------4------5------7-55555-4-0-|x1|-------4------5------7-5-4542-|x1
    E|-555555-777777-999999------------|  |-555555-777777-999999---------|
    
    Verse 2(00:48)
    G|-----------------------------------|
    D|-----------------------------------|
    A|----77-7-44-4-5-7----77-7-44-4-542-|x4
    E|-55-5------------55-5--------------|
    
    Chorus 2(01:07)
    G|-----------------------|
    D|-----------------------|
    A|----------44--------77-|x2
    E|-55-00-55---55-00-55---|
    
    Bridge(01:17)
    G|---------------------------------|  |-------------------|
    D|---------------------------------|  |-------------------|
    A|-------4------5------7-55555-4-0-|x4|-22222222-55555555-|
    E|-555555-777777-999999------------|  |-------------------|
    
    Chorus 3(01:46)
    G|-----------------------|  |----|
    D|-----------------------|  |----|
    A|----------44--------77-|x4|-0~-|x1
    E|-55-00-55---55-00-55---|  |----|
    
    thats it! Please rate this tab!
     

    Тональность:

    Это должно быть в ТОП-листе! - Топ-лист композиций



    Назад
    Рекомендуем посмотреть другие песни исполнителя «Guttermouth»:

    • Комменты Fb ()
    • Комменты ВК



    Добавить в Избранное Браузера
    Сохранить здесь Очистить


    x

    0


    +
    -

    +
    -

    -

    Авторизация





    Зарегистрироваться

    M

    Дата и время

    • 19:34:18
       

    Социальные ссылки


    Наши приложения

    • Muzbank App Play Market
    • Muzbank Amazon App