MUZBANK



A MOST COMPLETE BANK OF MUSIC INFORMATION

МУЗЫКАЛЬНО-ИНФОРМАЦИОННЫЙ БАНК





HHammerFall • Stonger Then All (аккорды и текст - chords & lyrics)


312

Print

Видео «Stonger Then All (HammerFall)»

Видео клипы к песне подбираются автоматически сайтом youtube. Возможны некоторые несоответствия клипов песне.

↑ Спрятать рекламу ↑





 


How to play:
bh: bend a half step
bf: bend a full step
h: hammer on
p: pull-off
pm---|:palm-mute


INTRO
-----

                    | Rhy. fig. 1
e|------------------|------------------|------------------|------------------|------------------|
B|------------------|------------------|------------------|------------------|------------------|
G|------------------|------------------|------------------|---------7--------|-9----------------|
D|---------5---4----|-2----------------|-5----------------|-5-------7--------|-9----------------|
A|---------5---4----|-2----------------|-5----------------|-5-------5--------|-7----------------|
E|---------3---2----|-0----------------|-3----------------|-3----------------|------------------|

                                                              end rhy. fig. 1
      pm-----------------------------|      pm---------------------|
e|------------------|------------------|------------------|------------------|
B|------------------|------------------|------------------|------------------|
G|------------------|------------------|------------------|------------------|
D|-5----------------|------------------|-4----------------|---------5---4----|
A|-3---3-3-3-3-3-3--|-3-3-3-3-3-3-3-3--|-2---2-2-2-2-2-2--|-2-2-2-2-5---4----|
E|------------------|------------------|------------------|---------3---2----|


e|------------------|------------------|------------------|------------------|
B|------------------|------------------|------------------|------------------|
G|------------------|------------------|-5-------7--------|-9----------------|
D|-2----------------|-5----------------|-5-------7--------|-9----------------|
A|-2----------------|-5----------------|-3-------5--------|-7----------------|
E|-0----------------|-3----------------|------------------|------------------|


e|------------------|------------------|------------------|------------------|
B|------------------|------------------|------------------|------------------|
G|------------------|------------------|------------------|-7----------------|
D|-7----------------|------------------|-5----------------|-7----------------|
A|-7----------------|------------------|-5----------------|-5----------------|
E|-5----------------|------------------|-3----------------|------------------|


  Rhy. fig. 2
         pm----------|                         pm----------|     pm-|  pm-| 
e||--------------------|------------------|------------------|------------------|
B||--------------------|------------------|------------------|------------------|
G||-*------------------|------------------|------------------|------------------|
D||-*-9----------------|-12----9-----4----|-5----------------|-7-----5-----4----|
A||---7---7-7-7-7-7-7--|-10----7-----2----|-3---3-3-3-3-3-3--|---3-3---3-3---3--|
E||--------------------|------------------|------------------|------------------|

                                                                end rhy. fig. 2
      pm----------|                         pm----------|     pm-|  pm-| 
e|------------------|------------------|------------------|--------------------||
B|------------------|------------------|------------------|--------------------||
G|------------------|------------------|------------------|------------------*-||
D|-9----------------|-12----9-----4----|-5----------------|-5-----7-----4----*-||
A|-7---7-7-7-7-7-7--|-10----7-----2----|-3---3-3-3-3-3-3--|---0-0---0-0--------||
E|------------------|------------------|------------------|--------------------||


1st VERSE
---------

e|------------------|------------------|------------------|------------------|
B|------------------|------------------|------------------|------------------|
G|------------------|------------------|------------------|------------------|
D|-9----------------|-------------4----|-5----------------|-------------7----|
A|-7----------------|-------------2----|-3----------------|-------------5----|
E|------------------|------------------|------------------|------------------|
   Always standing proud...

e|------------------|------------------|------------------|------------------|
B|------------------|------------------|------------------|------------------|
G|------------------|------------------|------------------|------------------|
D|-9----------------|-------------4----|-5----------------|-7-------5---4----|
A|-7----------------|-------------2----|-3----------------|-7-------5---4----|
E|------------------|------------------|------------------|-5-------3---2----|

e|------------------|------------------|------------------|------------------|
B|------------------|------------------|------------------|------------------|
G|------------------|------------------|------------------|------------------|
D|-9----------------|-------------4----|-5----------------|------------------|
A|-7----------------|-------------2----|-3----------------|------------------|
E|------------------|------------------|------------------|------------------|

e|------------------|------------------|------------------|------------------|
B|------------------|------------------|------------------|------------------|
G|------------------|------------------|------------------|------------------|
D|-5----------------|------------------|-7----------------|-9----------------|
A|-3----------------|------------------|-7----------------|-9----------------|
E|------------------|------------------|-5----------------|-7----------------|


Bridge
------


      pm---------------------|              pm---------------------|
e|------------------|------------------|------------------|------------------|
B|------------------|------------------|------------------|------------------|
G|------------------|------------------|------------------|------------------|
D|------------------|---------5--------|-7----------------|---------7--------|
A|-5----------------|-------------3----|-5---5-5-5-5-5-5--|-5-5-5-5-----8----|
E|-3---3-3-3-3-3-3--|-3-3-3-3----------|------------------|------------------|
 |                                                                           |
 |    pm-----------------------------|      pm-----------------------------| |
e|------------------|------------------|------------------|------------------|
B|------------------|------------------|------------------|------------------|
G|------------------|------------------|------------------|------------------|
D|------------------|------------------|-7----------------|------------------|
A|-5----------------|------------------|-5---5-5-5-5-5-5--|-5-5-5-5-5-5-5-5--|
E|-3---3-3-3-3-3-3--|-3-3-3-3-3-3-3-3--|------------------|------------------|
        Come and fly with...

      pm---------------------|              pm-----------------------------|
e|------------------|------------------|------------------|------------------|
B|------------------|------------------|------------------|------------------|
G|------------------|------------------|------------------|------------------|
D|------------------|---------9---10---|-9----------------|------------------|
A|-7----------------|------------------|-7---7-7-7-7-7-7--|-7-7-7-7-7-7-7-7--|
E|-5---5-5-5-5-5-5--|-5-5-5-5----------|------------------|------------------|
 |                                     |
 |    pm-----------------------------| |   
e|------------------|------------------|  Then both guitars plays the same
B|------------------|------------------|
G|------------------|------------------|
D|------------------|------------------|
A|-7----------------|------------------|
E|-5---5-5-5-5-5-5--|-5-5-5-5-5-5-5-5--|

      pm----------|    pm--| pm--|  pm      pm----------|    pm--| pm--| pm
e|------------------|------------------|------------------|------------------|
B|------------------|------------------|------------------|------------------|
G|------------------|------------------|------------------|------------------|
D|-5----------------|-5-----5-----5----|------------------|------------------|
A|-3---3-3-3-3-3-3--|-3-3-3-3-3-3-3-3--|-5----------------|-5-----5-----5----|
E|------------------|------------------|-3---3-3-3-3-3-3--|-3-3-3-3-3-3-3-3--|

      pm----------|      pm----------|
e|------------------|------------------|------------------|------------------|
B|------------------|------------------|------------------|------------------|
G|------------------|------------------|------------------|------------------|
D|-7----------------|-7----------------|-4-------4--------|-4-------5---4----|
A|-5---5-5-5-5-5-5--|-5---5-5-5-5-5-5--|-2-------2--------|-2-------5---4----|
E|------------------|------------------|------------------|---------3---2----|


Chorus
------

Rhy. fig. 1 
then,
rhy. fig. 2 x2


2nd verse
---------

Same as "1st"


Bridge
------

Same as last time


Chorus
------

Rhy. fig. 1 
then,
rhy. fig. 2 x2


Riff A
------

    pm--| pm--|        pm--| pm--|        pm--| pm--| pm     pm--| pm--|
e|------------------|------------------|------------------|------------------|
B|------------------|------------------|------------------|------------------|
G|------------------|------------------|------------------|------------------|
D|-5-----4-----4p2--|-5-----4-----2h4--|-5-----4-----4----|-4-----2-----2p0--|
A|---2-2---2-2------|---2-2---2-2------|---2-2---2-2---2--|---0-0---0-0------|
E|------------------|------------------|------------------|------------------|

repeat x3


Riff B
------

I 

Тональность:

Это должно быть в ТОП-листе! - Топ-лист композиций



Назад
Рекомендуем посмотреть другие песни исполнителя «HammerFall»:

  • Комменты Fb ()
  • Комменты ВК



Добавить в Избранное Браузера
Сохранить здесь Очистить


x

0


+
-

+
-

-

Авторизация





Зарегистрироваться

M

Дата и время

  • 08:09:25
     

Социальные ссылки


Наши приложения

  • Muzbank App Play Market
  • Muzbank Amazon App
  • Muzbank Bitcoin13igjuWJj2R4cHiyZqP7Q3ggVvfXE9j82Q