MUZBANK


МУЗЫКАЛЬНО-ИНФОРМАЦИОННЫЙ БАНК





HHarrison George • Ballad Of Sir Frankie Crisp Let It Roll (аккорды и текст - chords & lyrics)


461

Print

Видео «Ballad Of Sir Frankie Crisp Let It Roll (Harrison George)»

Видео клипы к песне подбираются автоматически сайтом youtube. Возможны некоторые несоответствия клипов песне.

↑ Спрятать рекламу ↑





intro (riff x4)
G Bm Em
E|---------10-10------------|---------10-10------------|---12----|
B|------12---------12-------|------12---------12-------|---------|
G|---12---------------12----|---11---------------11----|---------|
D|--------------------------|--------------------------|---------|
A|--------------------------|--------------------------|---------|
E|--------------------------|--------------------------|---------|

piano riff
G Bm E
E|---------------------2-3-5--2-3--|
B|---------------------------------|
G|--4--4--4--4--0--0---------------|
D|--5--5--4--4--2--2---------------|
A|---------------------------------|
E|---------------------------------|

D G
Let it roll across the floor
Em Asus4 A
Through the hall and out the door
F#m7 Bm
To the fountain of perpetual mirth
G F#
Let it roll for what it's worth

riff x4

Find me where ye echo lays
Lose ye bodies in the maze
See the lord and all the mouths he feeds
Let it roll among the weeds
Let it roll

riff x4

Let it roll down through the caves
Ye long walks of Coole and Shades
Through ye woode here may ye rest awhile
Handkerchiefs to match your tie
Let it roll

riff x4
Let it roll
Let it roll

Fools illusions everywhere
Joan and Molly sweep the stairs
Eyes that shining full of inner light
Let it roll into the night

riff x(till the end)
Let it roll
Let it roll
Let it roll
Let it roll
Let it roll

Тональность:

Это должно быть в ТОП-листе! - Топ-лист композиций



Назад
Рекомендуем посмотреть другие песни исполнителя «Harrison George»:

  • Комменты Fb ()
  • Комменты ВК



Добавить в Избранное Браузера
Сохранить здесь Очистить


x

0


+
-

+
-

-

Авторизация





Зарегистрироваться

M

Дата и время

  • 04:36:08
     

Социальные ссылки


Наши приложения

  • Muzbank App Play Market
  • Muzbank Amazon App