MUZBANK


МУЗЫКАЛЬНО-ИНФОРМАЦИОННЫЙ БАНК





HHarrison George • Blow Away (аккорды и текст - chords & lyrics)


389

Print

Видео «Blow Away (Harrison George)»

Видео клипы к песне подбираются автоматически сайтом youtube. Возможны некоторые несоответствия клипов песне.

↑ Спрятать рекламу ↑





INTRO:

E|----------------10--9--9-------------------10---10/12---12/14----------------|
B|-10--12⁄10--------------------10/12---10------------------------14---10------|
G|------------11-------------11----------------------------------------------9-|
D|-----------------------------------------------------------------------------|
A|-----------------------------------------------------------------------------|
E|-----------------------------------------------------------------------------|

D Bm
Wind blew in, sky turned to black
F#m A
Rained for years til it dampened my heart
D Bm
Cracks and leaks, the floor boards caught rot
F#M A
About to go down, I had almost forgot

D Bm F#m A
All I gotta do is to, is to love you
D Bm F E
All I gotta be is to, be happy
D Bm F#m A
All it's gotta take is some warmth to make it
F C A
Blow away, blow away, blow away

D BM F#M A
All I gotta do is to, is to love you
D Bm F E
All I gotta be is to, be happy
D Bm F#m A
All it's gotta take is some warmth to make it
F C D
Blow away, blow away, blow away

Sky cleared up, day turned to bright
Closing bothe eyes, now the head filled with light
Hard to remember the state I was in
Instant amnesia, yang to the yin

Chorus

Wind blew in, cloud was dispersed
Rainbows appearing, the pressure was burst
Breezes a singing, now feeling good
The moment had passed like I knew that it should

Chorus

This is played after the chorus:

E|-------------------------------------------|
B|-------------------------------------------|
G|--------------------------9---7------------|
D|---------------7---10-------------10⁄7---7-|
A|---8---10----------------------------------|
E|-------------------------------------------|

SOLO:

E|-------------------------------------------------------------|
B|----------------------------------------------------------10-|
G|----------------------9--7-----------------------------------|
D|------------7--10-----------10⁄7--7----11⁄9--7---------------|
A|---8--10-----------------------------------------------------|
E|-------------------------------------------------------------|

E|--------17--14-----------------------------10--------------------------------|
B|--15--------------15---------------------------p13h12---p13h12---10----------|
G|--------------------------14------11⁄9--7----------------------------12---11-|
D|-----------------------------------------------------------------------------|
A|-----------------------------------------------------------------------------|
E|-----------------------------------------------------------------------------|

Тональность:

Это должно быть в ТОП-листе! - Топ-лист композиций



Назад
Рекомендуем посмотреть другие песни исполнителя «Harrison George»:

  • Комменты Fb ()
  • Комменты ВК



Добавить в Избранное Браузера
Сохранить здесь Очистить


x

0


+
-

+
-

-

Авторизация





Зарегистрироваться

M

Дата и время

  • 08:38:03
     

Социальные ссылки


Наши приложения

  • Muzbank App Play Market
  • Muzbank Amazon App