MUZBANK


МУЗЫКАЛЬНО-ИНФОРМАЦИОННЫЙ БАНК





HHarrison George • Id Have You Anytime (аккорды и текст - chords & lyrics)


375

Print

Видео «Id Have You Anytime (Harrison George)»

Видео клипы к песне подбираются автоматически сайтом youtube. Возможны некоторые несоответствия клипов песне.

↑ Спрятать рекламу ↑





intro
Gmaj7 Bbmaj7
E|-------5⁄2-----------8⁄5---|
B|--7⁄5----------10⁄8--------|
G|---------------------------|
D|---------------------------|
A|---------------------------|
E|---------------------------|
Cm7
E|------6/3-6/8--⁄6----------|
B|--4/8--------------8-------|
G|---------------------------|
D|---------------------------|
A|---------------------------|
E|---------------------------|
G Am Em D
E|--7⁄5------10/12---⁄10-------------|
B|--------8------------------/8------|
G|-------------------------------7---|
D|-----------------------------------|
A|-----------------------------------|
E|-----------------------------------|
Gmaj7 Bbmaj7
Let me in here, I know I've been here
Cm7 G Am Em D
Let me into your heart

E|--7⁄5--------------------------|
B|-------8---5⁄3-----------------|
G|----------------4---2p0--------|
D|-------------------------2--0--|
A|-------------------------------|
E|-------------------------------|

Gmaj7 Bmaj7
Let me know you, let me show you
Cm7 G Am Em D
Let me roll it to you

A E D
All I have is yours
C G F A
All you see is mine
D D/C
And I'm glad to hold you in my arms
D/B D/Bb A Asus4 A
I'd have you anytime

Let me say it, let me play it
Let me lay it on you
Let me know you, let me show you
Let me grow upon you

All I have is yours
All you see is mine
And I'm glad to hold you in my arms
I'd have you anytime

Let me in here, I know I've been here
Let me into your heart

solo
Gmaj7 Bbmaj7
E|-------5⁄2-----------8⁄5--|
B|--7⁄5----------10⁄8-------|
G|--------------------------|
D|--------------------------|
A|--------------------------|
E|--------------------------|

Cm7
E|------6/3-6/8--⁄6-----|
B|--4/8--------------8--|
G|----------------------|
D|----------------------|
A|----------------------|
E|----------------------|

G Am Em D
E|--7⁄5----------------12⁄10---------|
B|--------8--5⁄3--------------12⁄10--|
G|----------------4------------------|
D|-----------------------------------|
A|-----------------------------------|
E|-----------------------------------|

Gmaj7 Bbmaj7
E|-------5⁄2-----------8⁄5--|
B|--7⁄5----------10⁄8-------|
G|--------------------------|
D|--------------------------|
A|--------------------------|
E|--------------------------|

Cm7
E|----6-6--6/8--6-----|
B|--88-8-----------8--|
G|--------------------|
D|--------------------|
A|--------------------|
E|--------------------|

G Am Em D
E|--7⁄5------10/12---⁄10---------------|
B|--------8--------------12⁄10--8------|
G|---------------------------------7---|
D|-------------------------------------|
A|-------------------------------------|
E|-------------------------------------|

Тональность:

Это должно быть в ТОП-листе! - Топ-лист композиций



Назад
Рекомендуем посмотреть другие песни исполнителя «Harrison George»:

  • Комменты Fb ()
  • Комменты ВК



Добавить в Избранное Браузера
Сохранить здесь Очистить


x

0


+
-

+
-

-

Авторизация





Зарегистрироваться

M

Дата и время

  • 19:36:58
     

Социальные ссылки


Наши приложения

  • Muzbank App Play Market
  • Muzbank Amazon App