MUZBANK


МУЗЫКАЛЬНО-ИНФОРМАЦИОННЫЙ БАНК





HHarrison George • My Sweet Lord (аккорды и текст - chords & lyrics)


1463

Print

Видео «My Sweet Lord (Harrison George)»

Видео клипы к песне подбираются автоматически сайтом youtube. Возможны некоторые несоответствия клипов песне.

↑ Спрятать рекламу ↑






Chords Used, Capo @ the 2nd fret (rythm guitar only)

Em: 022000(as if capo were the 1st fret)

(normal notation)
e----0
B--c-0
G--a-0
D--p-4
A--o-4
E----0

A: x02220

e----0
B--C-4
G--A-4
A--P-4
D--O-0
E----X

D: xx0232

e----4
B--C-5
G--A-4
A--P-0
D--O-X
E----X

Bm: x24432

e----4
B--C-5
G--A-6
A--P-6
D--O-4
E----X

F#dim: xx1212

e----4
B--C-3
G--A-4
A--P-3
D--O-X
E----X

B7: x21202

e----4
B--C-2
G--A-4
A--P-3
D--O-4
E----X

D7: x5453x

e----X
B--C-5
G--A-7
A--P-6
D--O-7
E----X

G#dim: 456464 or xx3434

e----5 e----6
B--C-6 B--C-5
G--A-5 OR G--A-6
A--P-7 D--P-5
D--O-6 A--O-X
E----5 E----X

C#7: x46464 or x4342x

e----6 e----X
B--C-8 B--C-4
G--A-6 OR G--A-6
A--P-8 A--P-5
D--O-6 D--O-6
E----X E----X

F#m: 244222

e----4
B--C-4
G--A-4
A--P-6
D--O-6
E----4

B: x2444x

e----X
B--C-6
G--A-6
A--P-6
D--O-4
E----X

E: 022100

e----0
B--C-0
G--A-3
A--P-4
D--O-4
E----0

C#m: x46654

e----6
B--C-7
G--A-8
A--P-8
D--O-6
E----X
Em A (x4)

D Bm
-14/16--14/12--12/14--12----------
-------------------------14-14~---
----------------------------------
----------------------------------
----------------------------------
----------------------------------

D Bm
-14/16--14/12--12/14--12----------12--------
-------------------------14-12/14-----14/12-
--------------------------------------------
--------------------------------------------
--------------------------------------------
--------------------------------------------

D F#dim B7 Em
-14/16--14/12-----16⁄13-13⁄10-10⁄7-7/10/13---9---9---9-------
--------------------------------------------10--10--10--9-7~-
------------------16⁄13-13⁄10-10⁄7-7/10/13--------------9-8~-
-------------------------------------------------------------
-------------------------------------------------------------
-------------------------------------------------------------


A Em
My sweet lord
A Em
Hm, my lord
A Em
Hm, my lord

A D
I really want to see you
Bm D
Really want to be with you
Bm D
Really want to see you lord
F#dim B7 Em
But it takes so long, my lord

A Em
My sweet lord
A Em
Hm, my lord
A Em
Hm, my lord

A D
I really want to know you
Bm D
Really want to go with you
Bm D
Really want to show you lord
F#dim B7 Em A
That it won't take long, my lord (hallelujah)

Em A
My sweet lord (hallelujah)
Em A
Hm, my lord (hallelujah)
Em A
My sweet lord (hallelujah)

D
I really want to see you
D7
Really want to see you
B7
Really want to see you, lord
E
Really want to see you, lord
G#dim C#7 F#m B
But it takes so long, my lord (hallelujah)

F#m B
My sweet lord (hallelujah)
F#m B
Hm, my lord (hallelujah)
F#m B
My, my, my lord (hallelujah)

E C#m
I really want to know you (hallelujah)
E C#m
Really want to go with you (hallelujah)
E
Really want to show you lord (aaah)
G#dim C#7 F#m B
That it won't take long, my lord (hallelujah)

F#m B
Hmm (hallelujah)
F#m B
My sweet lord (hallelujah)
F#m B
My, my, lord (hallelujah)


E C#m
-16/18--16/14--14/16--14----------
-------------------------16-16~---
----------------------------------
----------------------------------
----------------------------------
----------------------------------

E C#m
-16/18--16/14--14/16--14----------14--------
-------------------------16-14/16-----16/14-
--------------------------------------------
--------------------------------------------
--------------------------------------------
--------------------------------------------

E G#dim C#7 F#m B
-16/18--16/14-----18⁄15-15⁄12-12⁄9-9/12/15--11--11--11---------
--------------------------------------------12--12--12--11--9~-
------------------18⁄15-15⁄12-12⁄9-9/12/15--------------11-10~-
---------------------------------------------------------------
---------------------------------------------------------------
---------------------------------------------------------------

F#m B
Hm, my lord (hare krishna)
F#m B
My, my, my lord (hare krishna)
F#m B
Oh hm, my sweet lord (krishna, krishna)
F#m B
Oh-uuh-uh (hare hare)

E C#m
Now, I really want to see you (hare rama)
E C#m
Really want to be with you (hare rama)
E
Really want to see you lord (aaah)
G#dim C#7 F#m A
But it takes so long, my lord (hallelujah)

F#m B
Hm, my lord (hallelujah)
F#m B
My, my, my lord (hare krishna)
F#m B
My sweet lord (hare krishna)
F#m B
My sweet lord (krishna krishna)
F#m B
My lord (hare hare)
F#m B
Hm, hm (Gurur Brahma)
F#m B
Hm, hm (Gurur Vishnu)
F#m B
Hm, hm (Gurur Devo)
F#m B
Hm, hm (Maheshwara)
F#m B
My sweet lord (Gurur Sakshaat)
F#m B
My sweet lord (Parabrahma)
F#m B
My, my, my lord (Tasmayi Shree)
F#m B
My, my, my, my lord (Guruve Namah)
F#m B
My sweet lord (Hare Rama)
F#m B
(hare krishna)
F#m B
My sweet lord (hare krishna)
F#m B
My sweet lord (krishna krishna)
F#m B
My lord (hare hare)

Тональность:

Это должно быть в ТОП-листе! - Топ-лист композиций



Назад
Рекомендуем посмотреть другие песни исполнителя «Harrison George»:

  • Комменты Fb ()
  • Комменты ВК



Добавить в Избранное Браузера
Сохранить здесь Очистить


x

0


+
-

+
-

-

Авторизация





Зарегистрироваться

M

Дата и время

  • 23:05:31
     

Социальные ссылки


Наши приложения

  • Muzbank App Play Market
  • Muzbank Amazon App