MUZBANK



A MOST COMPLETE BANK OF MUSIC INFORMATION

МУЗЫКАЛЬНО-ИНФОРМАЦИОННЫЙ БАНК







    HHarrison George • My Sweet Lord (аккорды и текст - chords & lyrics)


    344

    Print

    Видео «My Sweet Lord (Harrison George)»

    Видео клипы к песне подбираются автоматически сайтом youtube. Возможны некоторые несоответствия клипов песне.

    ↑ Спрятать рекламу ↑






     
    
    
    email me with any mistakes or post them my e-mail is brian_dino@hotmail.com
    
    /:slide
            
    6----14/16---14---12-----12/14--[--12------------
    5-------------------------------[------14------14
    4-------------------------------[----------------
    3-------------------------------[----------------
    2-------------------------------[----------------
    1-------------------------------[----------------
    
    
    6--14/16---14--12---12/14---[-12----------12---------
    5---------------------------[----14-12/14----14---12-
    4---------------------------[------------------------
    3---------------------------[------------------------
    2---------------------------[------------------------
    1---------------------------[------------------------
    Continued from above
    6-14/12---14-/-12---16-
    5----------------------
    4----------------------
    3----------------------
    2----------------------
    1----------------------
    
    
    6-13-13-/-10--10-/-7--7---10-[-9----9----9--7-------
    5----------------------------[----------------------
    4----------------------------[----------------9-/-7-
    3----------------------------[----------------------
    2----------------------------[----------------------
    1----------------------------[----------------------
     

    Тональность:

    Это должно быть в ТОП-листе! - Топ-лист композиций



    Назад
    Рекомендуем посмотреть другие песни исполнителя «Harrison George»:

    • Комменты Fb ()
    • Комменты ВК



    Добавить в Избранное Браузера
    Сохранить здесь Очистить


    x

    0


    +
    -

    +
    -

    -

    Авторизация





    Зарегистрироваться

    M

    Дата и время

    • 04:52:57
       

    Социальные ссылки


    Наши приложения

    • Muzbank App Play Market
    • Muzbank Amazon App