MUZBANK


МУЗЫКАЛЬНО-ИНФОРМАЦИОННЫЙ БАНК





HHelloween • A Tale That Wasnt Right (аккорды и текст - chords & lyrics)


542

Print

Видео «A Tale That Wasnt Right (Helloween)»

Видео клипы к песне подбираются автоматически сайтом youtube. Возможны некоторые несоответствия клипов песне.

↑ Спрятать рекламу ↑






 


1ST VERSE              	                                                         
  Am               Em               Am              Fm                
E-0---0---0---0--|-0---0---0---0--|-0---0---0---0--|-1---1---1---1--|
B-1---1---1---1--|-0---0---0---0--|-1---1---1---1--|-1---1---1---1--|
G-------------------------------|
D---2---2---2---2|---2---2---2---2|---2---2---2---2|---3---3---3---3|
A-------------------------------|
E-------------------------------|
                                                                        

  Dm               Am               Em 
E-1---1---1---1--|-0---0---0---0--|-0---0---0---0---|
B-3---3---3---3--|-1---1---1---1--|-0---0---0---0---|
G---2---2---2---2-----------|
D----------------|---2---2---2---2|---2---2---2----2|
A---------------------------|
E---------------------------|
                                                                        

  Am        1st time    ,with lyrics    Gm                       
E-0---0---|------0-----------3--------------||
B-1---1---|------1-----------3--------------||
G----------------4--------------||
D---2---2--------5--------------||
A----------------5--------------||
E----------------3--------------||
                                                                        
                                                                        

    solo 1:   ( played  clean , with  verse 1 )                                                               
E--------------------------|
B||12^13--10-12^13r12--10^12|-15^17--15^17--15--13--12--13--10-|
G--------------------------|
D--------------------------|
A--------------------------|
E--------------------------|
                                                                        

                                                                                   
E---------------------------------|-15^17--15^17--15--13--12-13-10|
B-10-12-13-12-10-15-13-12h13p12-10--------------------|
G-----------------------------------------------------|
D-----------------------------------------------------|
A-----------------------------------------------------|
E-----------------------------------------------------|
                                                                        

                                                                        
E--------------------------------------------------||
B---10-12-13-12-12h13p12-10|-10--12^13r12--13^15r13--10^12--10-||
G-9------------------------------------------------||
D--------------------------------------------------||
A--------------------------------------------------||
E--------------------------------------------------||
                                                                        

 (verse 1)                                                                
Here I stand all alone 
Have my mind turned to stone
Have my heart filled up with ice    
To avoid its breakin 

Тональность:

Это должно быть в ТОП-листе! - Топ-лист композиций



Назад
Рекомендуем посмотреть другие песни исполнителя «Helloween»:

  • Комменты Fb ()
  • Комменты ВК



Добавить в Избранное Браузера
Сохранить здесь Очистить


x

0


+
-

+
-

-

Авторизация





Зарегистрироваться

M

Дата и время

  • 17:12:02
     

Социальные ссылки


Наши приложения

  • Muzbank App Play Market
  • Muzbank Amazon App