MUZBANK


МУЗЫКАЛЬНО-ИНФОРМАЦИОННЫЙ БАНК





HHelloween • Falling Higher [BASS TABS] (аккорды и текст - chords & lyrics)


289

Print

Видео «Falling Higher [BASS TABS] (Helloween)»

Видео клипы к песне подбираются автоматически сайтом youtube. Возможны некоторые несоответствия клипов песне.

↑ Спрятать рекламу ↑





 

BASS TAB 

Intro
|------|---------|-----------|------|------|--------------------------|
|---8--|---6--8--|-----------|------|------|--------------------------|
|---6--|---4--6--|--2-----4--|---6--|---2--|----------2-2-2--4--4/16--|
|------|---------|-----2-----|------|------|---2-2-2------------------|

|-------------|--------|-------------|-----------|
|-------------|--------|-------------|-----------|
|--6-----4-6--|--2--4--|--6-----4-6--|--2-----4--|
|----4-6------|--------|----4-6------|-----2-----|

|-------------|------|--------------------------|
|-------------|------|--------------------------|
|--6-----4-6--|---2--|----------2-2-2--4--4/16--|
|----4-6------|------|---2-2-2------------------|

|------------------------------|------------------------------|------------------------------|
|------------------------------|------------------------------|------------------------------|
|--6-6-6-6-6-6-6-6-6-6-6-6--4--|--6-6-6-6-6-6-6-6-6-6-6-6--2--|--6-6-6-6-6-6-6-6-6-6-6-6--4--|
|------------------------------|------------------------------|------------------------------|

|------------------------------|
|------------------------------|
|--6-6-6-6-6-6-6-6-6-6-6-6--6--|
|------------------------------|

Verse
|------------------------------------------------------|
|------------------------------------------------------|
|-------------4-4-4-4--4-5-6--6-6-6-6--2-2-2-2---2--4--|
|--2-2-2-2-2-------------------------------------------|

|-------------------------------------------------------|
|-------------------------------------------------------|
|-------------4-4-4-4--4-5-6--6-6-6-6--2-2-2-2--4-4-4-4-|
|--2-2-2-2-2--------------------------------------------|

Pre-Chorus
|------------------------------------|--------------------------------------------|
|------------------------------------|--------------------------4-4-4-4-----------|
|--6-6-6-6-6-6-6-6-6-6-6-6--4-4-4-4--|--6-6-6-6-6-6-6-6-6-6-6-6----------4-4-4-4--|
|------------------------------------|--------------------------------------------|

|------------------------------------|---------------------------------------------|
|------------------------------------|---------------------------------------------|
|--6-6-6-6-6-6-6-6-6-6-6-6--4-4-4-4--|--6-6-6-6-6-6-6-6-6-6-6-6--2-2-2-2--4-4-4-4--|
|------------------------------------|---------------------------------------------|

Chorus
|------------------------------|---------------------------------|
|------------------------------|---------------------------------|
|--6-6-6-6-6-6-6-6-6-6-6-6--4--|--6-6-6-6-6-6-6-6-6-6-6-6--6--4--|
|------------------------------|---------------------------------|

|------------------------------|---------------------------|
|------------------------------|---------------------------|
|--6-6-6-6-6-6-6-6-6-6-6-6--4--|--6-6-6-6-6-6-6-6-6-6-6-6--|
|------------------------------|---------------------------|

|---------------------------------------------------|
|------------------------------------------6-6-6-6--|
|--2-1-2--4---6--6-6-6-6--8-8-8-8--9-9-9-9----------|
|-----------4---------------------------------------|

|----------------|
|----------------|
|--2-1-2--4---6--|
|-----------4----|

|------------------------------|------------------------------|------------------------------|
|------------------------------|------------------------------|------------------------------|
|--6-6-6-6-6-6-6-6-6-6-6-6--4--|--6-6-6-6-6-6-6-6-6-6-6-6--2--|--6-6-6-6-6-6-6-6-6-6-6-6--4--|
|------------------------------|------------------------------|------------------------------|

|---------------------------------------4-3--|
|-------------------------------4-3-6-4------|
|--6-6-6-6-6-6-6-6-6-6-6-6--6-4--------------|
|--------------------------------------------|

Verse
|------------------------------------------------------|
|------------------------------------------------------|
|-------------4-4-4-4--4-5-6--6-6-6-6--2-2-2-2---2--4--|
|--2-2-2-2-2-------------------------------------------|

|-------------------------------------------------------|
|-------------------------------------------------------|
|-------------4-4-4-4--4-5-6--6-6-6-6--2-2-2-2--4-4-4-4-|
|--2-2-2-2-2--------------------------------------------|

Pre-Chorus
|------------------------------------|--------------------------------------------|
|------------------------------------|--------------------------4-4-4-4-----------|
|--6-6-6-6-6-6-6-6-6-6-6-6--4-4-4-4--|--6-6-6-6-6-6-6-6-6-6-6-6----------4-4-4-4--|
|------------------------------------|--------------------------------------------|

|------------------------------------|---------------------------------------------|
|------------------------------------|---------------------------------------------|
|--6-6-6-6-6-6-6-6-6-6-6-6--4-4-4-4--|--6-6-6-6-6-6-6-6-6-6-6-6--2-2-2-2--4-4-4-4--|
|------------------------------------|---------------------------------------------|

Chorus 2
|------------------------------|---------------------------------|
|------------------------------|---------------------------------|
|--6-6-6-6-6-6-6-6-6-6-6-6--4--|--6-6-6-6-6-6-6-6-6-6-6-6--6--4--|
|------------------------------|---------------------------------|

|------------------------------|---------------------------|
|------------------------------|---------------------------|
|--6-6-6-6-6-6-6-6-6-6-6-6--4--|--6-6-6-6-6-6-6-6-6-6-6-6--|
|------------------------------|---------------------------|

|---------------------------------------------------|
|------------------------------------------6-6-6-6--|
|--2-1-2--4---6--6-6-6-6--8-8-8-8--9-9-9-9----------|
|-----------4---------------------------------------|

|----------------|
|----------------|
|--2-1-2--4---6--|
|-----------4----|

Solo
|-------------6-8----------------------------------------------|
|--------8-9------6-8-9-6-8--6-----6----------------------6-8--|
|--6-8-9-----------------------9-8---9-8-6-9-8-6-5--6-8-9------|
|--------------------------------------------------------------|

|---------------------------------------------------------------------------------|
|------------------------------------6-6-6-6--------------------6-6-6-6--8-8-8-8--|
|----6----6-6-6-6--8-8-8-8--9-9-9-9-----------8-8-8-8--9-9-9-9--------------------|
|--6---6--------------------------------------------------------------------------|

|---------------------------------------------|
|----------------------6-7-7-7-7-7-7-7-6------|
|--4-4-4-4-4-4-4-4-6-7-------------------7-6--|
|---------------------------------------------|

|---------------------------------------------|
|----------------------6-7-7-7-7-7-7-7-6------|
|--4-4-4-4-4-4-4-4-6-7-------------------3-4--|
|---------------------------------------------|

|---------------------------------------------|
|----------------------6-7-7-7-7-7-7-7-6------|
|--4-4-4-4-4-4-4-4-6-7-------------------7-6--|
|---------------------------------------------|

|---------------------------------------------|
|----------------------6-7-7-7-7-7-7-7-6------|
|--4-4-4-4-4-4-4-4-6-7-------------------3-4--|
|---------------------------------------------|

|----------------------------------------------------------------------|
|--2-2-2-2-2-2-2-2--4-4-4-4-4-4-4-4-------------------2-2-2-2-2-2-2-2--|
|------------------------------------2-2-2-2-2-2-2-2-------------------|
|----------------------------------------------------------------------|

|----------------------------------------------------------------------|
|--2-2-2-2-2-2-2-2--4-4-4-4-4-4-4-4-------------------2-2-2-2-2-2-2-2--|
|------------------------------------2-2-2-2-2-2-2-2-------------------|
|----------------------------------------------------------------------|

|---------------------------------------------|
|----------------------8-9-9-9-9-9-9-9-8------|
|--6-6-6-6-6-6-6-6-8-9-------------------9-8--|
|---------------------------------------------|

|---------------------------------------------|
|----------------------8-9-9-9-9-9-9-9-8------|
|--6-6-6-6-6-6-6-6-8-9-------------------5-6--|
|---------------------------------------------|

|---------------------------------------------|
|----------------------8-9-9-9-9-9-9-9-8------|
|--6-6-6-6-6-6-6-6-8-9-------------------9-8--|
|---------------------------------------------|

|---------------------------------------------|
|----------------------8-9-9-9-9-9-9-9-8------|
|--6-6-6-6-6-6-6-6-8-9-------------------5-6--|
|---------------------------------------------|

|-----------|--------------------|-----------|---------------|
|-----------|--------------------|-----------|---------------|
|--6-6-6-6--|--2-2-2-2--4-4-4-4--|--6-6-6-6--|--2-2-2-2---4--|
|-----------|--------------------|-----------|----------2----|

|-----------|-----------------------------|
|-----------|-----------------------------|
|--6-6-6-6--|--2-2-2-2----------4-4-4/16--|
|-----------|-----------2-2-2-2-----------|

Pre-Chorus
|------------------------------------|--------------------------------------------|
|------------------------------------|--------------------------4-4-4-4-----------|
|--6-6-6-6-6-6-6-6-6-6-6-6--4-4-4-4--|--6-6-6-6-6-6-6-6-6-6-6-6----------4-4-4-4--|
|------------------------------------|--------------------------------------------|

|------------------------------------|---------------------------------------------|
|------------------------------------|---------------------------------------------|
|--6-6-6-6-6-6-6-6-6-6-6-6--4-4-4-4--|--6-6-6-6-6-6-6-6-6-6-6-6--2-2-2-2--4-4-4-4--|
|------------------------------------|---------------------------------------------|

Chorus 3
Chorus 2
|------------------------------|---------------------------------|
|------------------------------|---------------------------------|
|--6-6-6-6-6-6-6-6-6-6-6-6--4--|--6-6-6-6-6-6-6-6-6-6-6-6--6--4--|
|------------------------------|---------------------------------|

|------------------------------|---------------------------|
|------------------------------|---------------------------|
|--6-6-6-6-6-6-6-6-6-6-6-6--4--|--6-6-6-6-6-6-6-6-6-6-6-6--|
|------------------------------|---------------------------|

|---------------------------------------------------|
|------------------------------------------6-6-6-6--|
|--2-1-2--4---6--6-6-6-6--8-8-8-8--9-9-9-9----------|
|-----------4---------------------------------------|

|---------------------------------------------------|
|------------------------------------------6-6-6-6--|
|--2-1-2--4---6--6-6-6-6--8-8-8-8--9-9-9-9----------|
|-----------4---------------------------------------|

|---------------------------------------------------|
|------------------------------------------6-6-6-6--|
|--2-1-2--4---6--6-6-6-6--8-8-8-8--9-9-9-9----------|
|-----------4---------------------------------------|

|-------------------|
|-------------------|
|--2-1-2--4------6--|
|-----------4-------|
 

Тональность:

Это должно быть в ТОП-листе! - Топ-лист композиций



Назад
Рекомендуем посмотреть другие песни исполнителя «Helloween»:

  • Комменты Fb ()
  • Комменты ВК



Добавить в Избранное Браузера
Сохранить здесь Очистить


x

0


+
-

+
-

-

Авторизация





Зарегистрироваться

M

Дата и время

  • 01:51:24
     

Социальные ссылки


Наши приложения

  • Muzbank App Play Market
  • Muzbank Amazon App