MUZBANK



A MOST COMPLETE BANK OF MUSIC INFORMATION

МУЗЫКАЛЬНО-ИНФОРМАЦИОННЫЙ БАНК





HHelloween • The Blues (аккорды и текст - chords & lyrics)


327

Print

Видео «The Blues (Helloween)»

Видео клипы к песне подбираются автоматически сайтом youtube. Возможны некоторые несоответствия клипов песне.

↑ Спрятать рекламу ↑





 


Fill 1: 

E:--------7b----------------7b-----------------------------------------------------------------
B:-------------6--7--------------6--7--------------3h5-3---------------------------------------
G:--------------------------------------------------------0------------------------------------
D:---------------------------------------------------------------------------------------------
A:---------------------------------------------------------------------------------------------
E:---------------------------------------------------------------------------------------------

Fill 2:

E:---------0-2-0----4---2-------2---------1--3-------------------------------------------------
B:--------------------------4--------------------2b----0--------------------------------------- 
G:---------------------------------------------------------------------------------------------
D:---------------------------------------------------------------------------------------------
A:---------------------------------------------------------------------------------------------
E:---------------------------------------------------------------------------------------------

Verse:

This is played using simple chords (i think.. lol)

G, Am, Dm, A, C and D

Here 

Тональность:

Это должно быть в ТОП-листе! - Топ-лист композиций



Назад
Рекомендуем посмотреть другие песни исполнителя «Helloween»:

  • Комменты Fb ()
  • Комменты ВК



Добавить в Избранное Браузера
Сохранить здесь Очистить


x

0


+
-

+
-

-

Авторизация





Зарегистрироваться

M

Дата и время

  • 20:04:40
     

Социальные ссылки


Наши приложения

  • Muzbank App Play Market
  • Muzbank Amazon App
  • Muzbank Bitcoin13igjuWJj2R4cHiyZqP7Q3ggVvfXE9j82Q