MUZBANK



A MOST COMPLETE BANK OF MUSIC INFORMATION

МУЗЫКАЛЬНО-ИНФОРМАЦИОННЫЙ БАНК





HHelloween • The Time Of The Oath (аккорды и текст - chords & lyrics)


507

Print

Видео «The Time Of The Oath (Helloween)»

Видео клипы к песне подбираются автоматически сайтом youtube. Возможны некоторые несоответствия клипов песне.

↑ Спрятать рекламу ↑





 


Parte A
e----------------------	
B----------------------
G----------------------
D----------------------
A----------5---------5-
D--0-0-0-0---0-0-0-0---

Parte B			Parte C
e-------------		e-------------------
b-------------		b-------------------
g-------------		g-------------------
D-------------		D-------------------
A----2-3---2--		A----2-3---2--------
D--3-----3----		D--3-----3---3-1-0--


e ----------------------------------------------------------------------------------
b ----------------------------------------------------------------------------------
g |*-2-------2-------2-----23-------3-------3-----35-------5-------5-----3-------2-------23--
D |*-2-------2-------2-----23-------3-------3-----35-------5-------5-----3-------2-------23--
A ----------------------------------------------------------------------------------
D |----0-0-0---0-0-0---0-0-----0-0-0---0-0-0---0-0-----0-0-0---0-0-0---0-0---0-0-0---0-0-0------

e -------------------------------------------------------------------------------------------------------|
b -------------------------------------------------------------------------------------------------------|
g --2-------2-------2-----23-------3-------3-----35-------5-------5-----3-------2--------------------*-|
D --2-------2-------2-----23-------3-------3-----35-------5-------5-----3-------2--------------------*-|
A ------------------------------------------------------------------------------------------3---2--------|
D ----0-0-0---0-0-0---0-0-----0-0-0---0-0-0---0-0-----0-0-0---0-0-0---0-0---0-0-0---0-0-3-5---3---3-1-0--|


e ---------------------------------
b ---------------------------------
g ---------------------------------
B ---------------------------------
A ------2-----3-----5-------3------
D --0-3---0-3---0-3---3-2-1---1-0--


Parte final da m 

Тональность:

Это должно быть в ТОП-листе! - Топ-лист композиций



Назад
Рекомендуем посмотреть другие песни исполнителя «Helloween»:

  • Комменты Fb ()
  • Комменты ВК



Добавить в Избранное Браузера
Сохранить здесь Очистить


x

0


+
-

+
-

-

Авторизация





Зарегистрироваться

M

Дата и время

  • 19:06:27
     

Социальные ссылки


Наши приложения

  • Muzbank App Play Market
  • Muzbank Amazon App