MUZBANK



A MOST COMPLETE BANK OF MUSIC INFORMATION

МУЗЫКАЛЬНО-ИНФОРМАЦИОННЫЙ БАНК







    HHelmet • High Visibility (аккорды и текст - chords & lyrics)


    264

    Print

    Видео «High Visibility (Helmet)»

    Видео клипы к песне подбираются автоматически сайтом youtube. Возможны некоторые несоответствия клипов песне.

    ↑ Спрятать рекламу ↑





     
    
    
    -----------------------------------------------------------------------------
                         (HIGH) VISIBILITY - Helmet
    -----------------------------------------------------------------------------
    
    
    
    
    Drop D Tuning - D, A, D, G, B, E
    
    Intro
    
    |------|----------------|
    |-BASS-|----------------|
    |------|----------------|
    |------|----------------|
    |-ONLY-|----------------|
    |------|-3^p0-3^p0-3^p0-|
           | Play x 4
    
    Verse
     
    |--------------------|--------------|-------|
    |--------------------|--------------|-------|
    |--------------------|--------------|-------|
    |-3--0-0--3-0-0--3-0-|-0-3-0--0-3p0-|-3p0-0-|
    |-3--0-0--3-0-0--3-0-|-0-3-0--0-3p0-|-3p0-0-|
    |-3--0-0--3-0-0--3-0-|-0-3-0--0-3p0-|-3p0-0-|
                         | Play x 18    |
    
    Chorus 
     
    |----------------------------------|
    |----------------------------------|
    |----------------------------------|
    |-8-8-8-8-8-8-8-8-8-8-8-8-3p0-0-/8-|
    |-8-8-8-8-8-8-8-8-8-8-8-8-3p0-0-/8-|
    |-8-8-8-8-8-8-8-8-8-8-8-8-3p0-0-/8-|
      Play x 4
    
    Solo
                                    1,2,3|                                 4|
    |-------------------------|----------|----------------------------------|
    |-------------------------|----------|----------------------------------|
    |-------------------------|----------|----------------------------------|
    |-3-0-0-3-0-6-6-5-0-3-0-0-|-/8-8-6-0-|-8-8-8-8-8-8-8-8-8-8-8-8-3p0-0-/8-|
    |-3-0-0-3-0-6-6-5-0-3-0-0-|-/8-8-6-0-|-8-8-8-8-8-8-8-8-8-8-8-8-3p0-0-/8-|
    |-3-0-0-3-0-6-6-5-0-3-0-0-|-/8-8-6-0-|-8-8-8-8-8-8-8-8-8-8-8-8-3p0-0-/8-|
                                         | Play x 4
     
    Outro
    
    |-----|
    |-----|
    |-----|
    |-5~~-|
    |-5~~-|
    |-5~~-|
    
    
     

    Тональность:

    Это должно быть в ТОП-листе! - Топ-лист композиций



    Назад
    Рекомендуем посмотреть другие песни исполнителя «Helmet»:

    • Комменты Fb ()
    • Комменты ВК



    Добавить в Избранное Браузера
    Сохранить здесь Очистить


    x

    0


    +
    -

    +
    -

    -

    Авторизация





    Зарегистрироваться

    M

    Дата и время

    • 21:13:13
       

    Социальные ссылки


    Наши приложения

    • Muzbank App Play Market
    • Muzbank Amazon App