MUZBANK


МУЗЫКАЛЬНО-ИНФОРМАЦИОННЫЙ БАНК





HHendrix Jimi • Fire (tab) (аккорды и текст - chords & lyrics)


426

Print

Видео «Fire (tab) (Hendrix Jimi)»

Видео клипы к песне подбираются автоматически сайтом youtube. Возможны некоторые несоответствия клипов песне.

↑ Спрятать рекламу ↑





[GUITAR TAB:]

Intro/Verse:

e|--------X--------------------------I-----------------------12^----------|
B|--------X--------------------------I-----------------------12^----------|
G|--13-12-X-10-12--------------------I-----------------------12^----------|
D|--X--X--X-X--X--12-12—(repeat 2x)--I------10-12-12-(6x)-----------------|
A|--11-10-X-8--10--X--X--------------I---12-------12----------------------|
E|--------X-------10-10--------------I------------10----------------------|

Chorus:
(You can drop the bottom note if its too hard to finger)

e|---10-10-12-10-8----------------------------|
B|---10-10-10-10-8—(6x)-----------------------|
G|---11-11-11-11-9---------(repeat this 4x)---|
D|---12-12-12-12-10---------------------------|
A|--------------------------------------------|
E|--------------------------------------------|

Bridge/Solo:

e|--------------------10^----10^----12^----10^--------------|
B|------------------------8------8------10-----8------------|
G|----------------------------------------------------------|
D|--12--10--7--10-------------------------------------------|
A|--12--10--7--10-------------------------------------------|
E|--10--8---5--8--------------------------------------------|
 

[BASS TAB:]

Pre-verse
  -------------- 
 |-6-5--35----*|
 |---------55--*|
  -------------- 
 
 Verse riff 
  ---------- 
 |*--------*|
 |*--355---*|
  --5------- 
 
 Chorus riff
  ------------------ 
 |*----------------*|
 |*5-5-------223344*|
  -----2345-5------- 
 
 Bridge into solo  "I`d move over rover and let Jimi take over"
  ----------- ----------- --------------- --------- ----------------- 
 |*---------*|*---------*|*-------------*|---------|-----------------|
 |*-5-5-5-5-*|*-3-3-3-3-*|*-12-12-12-12-*|-3-3-3-3-|-3-3-3-3-3-3-3-3-|
  ----------- ----------- --------------- --------- ----------------- 
 
 Solo riff
  ------------------ 
 |*----------------*|
 |*7-7-------445566*|
  -----4567-7------- 
 
 PERFORMANCE NOTES: (Sequence of patterns)
 
 Pattern				Repeats
 -------				-------
 Pre-verse			Two
 Verse				Six
 Chorus				Four
 
 Verse				Six
 Chorus				Four
 
 Bridge into Solo		One
 Solo				Four
 
 Pre-verse			Two
 Verse				Six
 Chorus				Four
 
 Solo				Two
 Chorus				Two
 Solo				Two
 Pre-Verse			One
 Chorus				One
 Solo				One [Fade out...]
 

[CHORDS:]

Ab G... F G D D  Ab G... F G D D

A C D D Alright,

A C D D now listen, baby


A  C D D
You don't care for me.I don't care about that
A  C D  D
     You got a new fool, hah, I like it like that
A  C D D
         I have only one burning desire
A  C D D
         Let me stand next to your fire 

Dm7                        G/A
Let me stand next to your fire
Dm7                        G/A
Let me stand next to your fire
Dm7                        G/A
Let me stand next to your fire
Dm7                        G/A   D D
Let me stand next to your fire
Listen here baby!
 A  C   D D
                Now stop acting so crazy!
 A   C   D    D
You say your mom ain't home,it ain't my concern
 A  C   D     D
 _Just play with me and you won't get burned
 A C  D D
         I have only one itching desire  
 A C  D D
         Let me stand next to your fire

Dm7                        G/A
Let me stand next to your fire
Dm7                        G/A
Let me stand next to your fire
Dm7                        G/A
Let me stand next to your fire
Dm7                        G/A
Let me stand next to your fire
D
  ah move over,rover
C
  And let Jimi take over
A
  Yeah, you know what I'm talking 'bout
C
  Yeah, get on with it then!!!!!



SOLO
Em7  A/B  (4x)

Ab G... F G D D   Ab G... F G D 


A C D D Hah!

A C D D Now listen baby
A    C   D D
You try to   give me your money, you

         better save it babe
A C D D
         Save it for aq rainy day
A C D D
              I have only one burning desire
A C D D
             Let me stand next to your fire!	



[LYRICS:]

Alright,
now listen, baby

You don't care for me
I don'-a care about that
Gotta new fool, ha!
I like it like that

I have only one burning desire
Let me stand next to your fire
Let me stand next to your fire [Repeat 4 times]

Listen here, baby
and stop acting so crazy
You say your mum ain't home,
it ain't my concern,
Just play with me and you won't get burned

I have only one itching desire
Let me stand next to your fire
Let me stand next to your fire [Repeat 4 times]

Oh! Move over, Rover
and let Jimi take over
Yeah, you know what I'm talking 'bout
Yeah, get on with it, baby
That's what I'm talking 'bout
Now dig this!
Ha!
Now listen, baby

You try to gimme your money
you better save it, babe
Save it for your rainy day

I have only one burning desire
Let me stand next to your fire
Let me stand next to your fire

Тональность:

Это должно быть в ТОП-листе! - Топ-лист композиций



Назад
Рекомендуем посмотреть другие песни исполнителя «Hendrix Jimi»:

  • Комменты Fb ()
  • Комменты ВК



Добавить в Избранное Браузера
Сохранить здесь Очистить


x

0


+
-

+
-

-

Авторизация





Зарегистрироваться

M

Дата и время

  • 23:45:49
     

Социальные ссылки


Наши приложения

  • Muzbank App Play Market
  • Muzbank Amazon App