MUZBANK



A MOST COMPLETE BANK OF MUSIC INFORMATION

МУЗЫКАЛЬНО-ИНФОРМАЦИОННЫЙ БАНК







    HHendrix Jimi • Midnight Lightning (аккорды и текст - chords & lyrics)


    348

    Print

    Видео «Midnight Lightning (Hendrix Jimi)»

    Видео клипы к песне подбираются автоматически сайтом youtube. Возможны некоторые несоответствия клипов песне.

    ↑ Спрятать рекламу ↑





     Tune down a hole step
    
    D#||------------------|----------------------------------------------|
    A#||------------------|----------------------------------------------|
    F#||------------------|--4-4-4-4----------4--------------------------|
    C#||------------------|--x-x-x-x----------x--------------------------|
    G#||------------------|--5-5-5-5-5-5-5--5-5--7p5h7p5h7p5h7p5h7p5h7p5-|
    D#||------------------|----------------------------------------------|
    
    
    -------------------------------------|----------------------------------|
    -------------------------------------|----------------------------------|
    -------------------------------------|------------4--4-4--4-4-------19-|
    -------------------------------------|------------x--x-x--x-x-------x--|
    -----5h7----------5p-0---------------|--5--5-5--5-5--5-5--5-5/-7~---x--|
    --0------3-3b5--0------5b-5-5--3b3p0-|----------------------------------|
    
    
    ------------------------------|----------------------------------|
    ------------------------------|----------------------------------|
    ------------------------------|--4-4-4-4-4--4-4--4-4/-9----9/16-|
    --------------------5b--------|--x-x-x-x-x--x-x--x-x-------------|
    -----------------7----7~------|--5-5-5-5-5--5-5--5-5-------------|
    --0--0--3-3b5--0----------17-|----------------------------------|
    
    
    ---------------------------------|---------------0-0-------0----3----|
    ---------------------------------|---------------0-0-------3--5------|
    ---------------------------------|--4--4-4--4-2----2--2-4------------|
    ------------------0--------------|--x--x-x--x-x----x--x-x------------|
    -------------0----------------2--|--5--5-5--5-4----4--4-5------------|
    --0--0-0-0-3b---0----5b-5-3-3b0--|-----------------------------------|
    
    
    --3/17------------------------------|--------------------5r--5-------|
    ------------------------------------|--------------------------5p3p0-|
    ------------------------------------|--4-4-4---4--4-4-4--------------|
    ------------------------------------|--x---x---x--x-x-x--------------|
    ---------------------5p0------------|--5---5-5-5--5-5-5--------------|
    -------0--0-3b3-5--0-----5b-5-3b-0--|--------------------------------|
    
    
    ---------------------------------|----------------------------------|
    ---------------------------------|----------------------------------|
    ---------------------------------|--4-4-4-4-4--4--4-----------------|
    ---------------------------------|--x-x-x-x-x--x--x--9/1095-------|
    --2--2-----------5p-0-5b-5-3--2--|--5-5-5-5-5--5--5------------7-5-|
    --0--0-0-3b-5--0------5b-5-3--0--|----------------------------------|
    
    ---------------------------------|---------------------5r---3-------|
    ---------------------------------|----------------------------5p3p0-|
    ---------------------------------|--4--4-4--4-4--4--4---------------|
    ---------------------------------|--x--x-x--x-x--x--x---------------|
    -----2----------5p0--------------|--5--5-5--5-5--5--5---------------|
    --0--0--3p0-5p0-----5b-5-3--3b0--|----------------------------------|
    
    -------------------------------|-------------------------------|
    -------------------------------|------------------------3------|
    -------------------------------|--4-4-4--4-4--4-4--4-4--2b-----|
    -------------------------------|--x-x-x--x-x--x-x--x-x---------|
    --2--2-2--------5p0-------2----|--5-5-5--5-5--5-5--5-5---------|
    --0--0-0-3b-5-0-----5r-3--0-0--|-------------------------------|
    
    ------------------------------------|---------------------------------|
    --3---------------------------------|---------------------------------|
    --2r2p0-----------------------------|--4-4-4-4-4-4-4-4-4--4-2r2p0----|
    ------------------------------------|--x-x-x-x-x-x-x-x-x--x--------2--|
    --------2----------5p-0----------0--|--5-5-5-5-5-5-5-5-5--5----------|
    --------0--3b-5--0------5b-5-5-3b0--|---------------------------------|
    
    ------------------------------------|-----0-0--0-0--0-0--0-0--5b-3---5/-|
    -----0------------------------------|-----0-0--0-0--0-0--0-x--5b-3---5/-|
    -----1------------------------------|--4--4-4--4-4--4-4--4-4------------|
    -----2------------------------------|--x----x--x-x--x-x--x-5------------|
    --2----------------5p0--------------|--5----5--5-5--5-5--5-5------------|
    --0----0-3b-0-5--0-----5b-5-5--3-0--|-----------------------------------|
    
    ------------------------------------|--------------------------------------|
    ------------------------------------|-----------------------------3-3---3~-|
    ------------------------------------|-----4-4--4-4--4-4--4-4--2-2b--2b--2~-|
    -----2--2---------------------------|-----x-x--x-x--x-x--x-x---------------|
    -----2--2-3-3b-----5p-0------5/7~-7|--5--5-5--5-5--5-5--5-5---------------|
    --0--0--0-3-3b5--0------5b-0--------|--------------------------------------|
    
    --------------------------------------|-------------------------3-------|
    --3-----------------------------------|-------------------3-5~----5p3p0-|
    --2r2p0-------------------------------|--4-4-4-4-4--4--4----------------|
    ------------------------------------0-|--x-x-x-x-x--x--x----------------|
    --------2--3-3b-----5p-0------------0-|--5-5-5-5-5--5--5----------------|
    --------0--3-3b5--0------5b-5-3--0----|---------------------------------|
    
    ----------------------------------|-----------------------0----3--5r-0--|
    -----0----------------------------|-----------------------3--5----5r-0--|
    -----1----------------------------|--4-4-4-4-4--4-4--4-4----------------|
    -----2----------------------------|--x-x-x-x-x--x-x--x-x----------------|
    --2---------------5---------------|--5-5-5-5-5--5-5--5-5----------------|
    --0-----3-3b3h5-0-5--5-5b-5-3--0--|-------------------------------------|
    
    -----------------------------------|---------------------------------|
    -----0-----------------------------|------------------------------0--|
    -----1-----------------------------|------------------------------0--|
    -----2-----------------------------|----------5b---------------------|
    --2---------------5p-0-------------|--5-7-7-----7~--5p0--------------|
    --0----0-3-3b5--0------5b-5-3-3b0--|--------0-----------x--0--14----|
    
    ---------------------------------|-------------------0--0-------3-------|
    -------0-------------------------|-------------------0--3h-5------5p3p0-|
    ---------------------------------|--4-4-4-4-4--4--4--4------------------|
    ---------------------------------|--x-x-x-x-x--x--x--x------------------|
    -----------------5p-0------------|--5-5-5-5-5--5--5--5------------------|
    --0--0---3b-5--0------5b-5-3--0--|--------------------------------------|
    
    ---------------------------------|-------------------------3b-------|-----0-----------0---------|
    -----0---------------------------|--------------------3h5-----5p3p0-|-----0-----------0---------|
    -----1---------------------------|--4-4-4-4-4--4-4-4----------------|-----1-----------1-------1-|
    -------2-------------------------|--x-x-x-x-x--x-x-x----------------|-----2-----2-----------2---|
    ------------------5--5h7-5h7-5---|--5-5-5-5-5--5-5-5----------------|--2-----3b-2--2-----3b-----|
    --0------3-3b5--0--------------7|----------------------------------|--0-----3b----0-----3b-----|
    
    -----------------------------0---0--|--0----0----0---0--0--0--0--------|
    ------3--3----2---------------------|---------------------------3b-0---|
    ------3--3----2--------------0h1-0--|--0-------------------------------|
    --3---3---------3----5--------------|----2--0h2--0h2-0--2--2--2-0--0h2-|
    --1-1------0----3--4----0-----------|----------------------------------|
    --------------------------0---------|----------------------------------|
    
    ------------------------------------------------|----0--0----0--0----0--0-0---0----|
    --------3--3----2-2-----------------------------|----------------------------------|
    --------3--3----2-2-----------------------------|----------------------------------|
    --0h3-3-3---------2--------2-4/6-2------------2-|----2--0h2--2--0h2--2--2-0h2-2----|
    --0h1--------0-------0-2h4---------4p2----------|--------------------------------0-|
    ---------------------------------------4p0-3----|----------------------------------|
    
    --------------------------------|-----0------0---16--10--8--5--3----|
    ------3-3---2-------------------|-----0------0---x---x---x--5--3----|
    ------3-3---2-2-----------------|----------------16--10--8--5--3----|
    ----3---------2------2-2-2------|------------------------------------|
    --1-------0------0-4p0-0-0------|------------------------------------|
    ---------------------------4r---|--0-----3p0---0------------------3--|
    
    ------------------------------------|-----0---------12---0-0-0---------|
    -------3-------2-2------------------|-------0-------12---0-0-0---------|
    -------3-------2-2------------------|-------------1--------1-1---------|
    --3--3-3--3-2--2-------2------------|--2----------2----------------2-2-|
    --1--1----1----------2--------------|------------------------------2-2-|
    -------------------5b----7-75-3--0-|---------3b0------0-------3-0-----|
    
    ---------------------0-0---3-------|-----0---------------------|
    ---------------------3-------5p3p0-|--0--0---------------------|
    --4-4-4-4-4-4-4-4-4----------------|--1---------------------1--|
    --x-x-x-x-x-x-x-x-x----------------|--2---------2--2--------2--|
    --5-5-5-5-5-5-5-5-5----------------|--2------------------------|
    -----------------------------------|--0-----3-0-------0--3-----|
    
    --------------------0-0---0-------|-----0-------0-----0-----------|
    --------------------3-------5p3p0-|-----0-------0-----0-----------|
    --4-4-4-4-2--2-2-4----------------|-------------------1-------1---|
    --x-x-x-x-x--x-x-x----------------|----------------2----------0h2-|
    --5-5-5-5-4--4-4-5----------------|----------------2--------------|
    ----------------------------------|--0-----3--0----0----0-3p0-----|
    
    -------------------5r--3-------|-----0--------------------------|-----0---------------------0--|
    -------------------------5p3p0-|-----0--------------------------|-----0---------------------0--|
    --4-4-4-4-4--4--4--------------|--------------------------------|-------1-4--4-4-2-----2-4-----|
    --x-x-x-x-x--x--x--------------|-------------0h2-------x----0h2-|-------2-x--x-x-x--0--0-x-----|
    --5-5-5-5-5--5--5--------------|--------3--2-----2--------------|---------5--5-5-4--4----5-----|
    -------------------------------|--0-----3-----------0----3b-----|--0---------------------------|
    
    --0--0---------------0-----------|--------------------------------|
    --0--0---------------0--3--------|--------------------------------|
    --x---------------------2b-2p0---|--------------------------------|
    --x------------2---------------2-|------------5h6-----------------|
    ---------------------------------|-----5h7-----------5--7---------|
    --------0-3--0----0--------------|--0------0------0-------3b-5--0-|
    
    ------------------------------------|-------------------------------|
    ------------------------------------|-------------------------------|
    ------------------------------------|-------------------------------|
    --------------5h6-------------------|-----------5h6-----------------|
    --5h7--5h7-----------5h7p5--5-------|----5h7-----------5--7---------|
    --0--------0------0-----------53p0-|--------0------0-------5--7-3b-|
    
    --------------------------------||
    --------------------------------||
    --------------------------------||
    ------------5h6-----------------||
    -----5h7-----------5--7---------||
    --0------0------0-------5--7-3--|| 

    Тональность:

    Это должно быть в ТОП-листе! - Топ-лист композиций



    Назад
    Рекомендуем посмотреть другие песни исполнителя «Hendrix Jimi»:

    • Комменты Fb ()
    • Комменты ВК



    Добавить в Избранное Браузера
    Сохранить здесь Очистить


    x

    0


    +
    -

    +
    -

    -

    Авторизация





    Зарегистрироваться

    M

    Дата и время

    • 07:05:17
       

    Социальные ссылки


    Наши приложения

    • Muzbank App Play Market
    • Muzbank Amazon App