MUZBANK


МУЗЫКАЛЬНО-ИНФОРМАЦИОННЫЙ БАНК





HHeroes Del Silencio • La Carta (аккорды и текст - chords & lyrics)


376

Print

Видео «La Carta (Heroes Del Silencio)»

Видео клипы к песне подбираются автоматически сайтом youtube. Возможны некоторые несоответствия клипов песне.

↑ Спрятать рекламу ↑





 


-------------------------------------------------------------------------------
			     La Carta- Heroes del Silencio
-------------------------------------------------------------------------------

By: luigi_cix

intro
e|--------------|-----------12---|12----1312------|
B|--------------|-------------10-|--10-------------|
G|--------------|----------------|-----------------|
D|--------------|----------------|-----------------|
A|--------------|----------------|-----------------|
E|-5--5--5--5-5-|--5-5-5-5--5-5--|-----------------|

Main riff
e|-----------|----------|----------|----------------|
B|-----------|----------|----------|----------------|
G|-----------|----------|----------|-------4-0------|
D|----2---2--|----3--2--|----2-----|-----2----------|
A|---3---3---|---3--3---|---3--3---|----3-----------|
E|-5---------|-1--------|-5------1-|--0-------------|

e|-----------|----------|----------|--------------|
B|-----------|----------|----------|--------------|
G|-----------|----------|----------|-------4-2----|
D|----2---2--|----3--2--|----2-----|-----2--------|
A|---3---3---|---3--3---|---3--3---|----3---------|
E|-5---------|-1--------|-5------1-|--0-----------|

Play verse twice (1 and 2, see the lyrics with the chords)
Verse:  Am  F5  G   Em

Play chorus
Chorus:  F5  G5   Am , F5   G5    Em

Then play main riff, then the verse, then the chorus and finally the last riff 
and the outro ending in Am


Last riff
e|-----------|----------|----------|--------------|
B|-----------|----------|----------|--------------|
G|-----------|----------|----------|-------4-2----|
D|----2---2--|----3--2--|----2-----|-----2--------|
A|---3---3---|---3--3---|---3--3---|----3---------|
E|-5---------|-1--------|-5------1-|--0-----------|

e|-----------|----------|-----------|--------------|
B|-----------|----------|-----------|--------------|
G|-----------|----------|------4-2--|-------5-2----|
D|----2---2--|----0--2--|----2----3-|-----2-----3--|
A|---3---3---|---3--3---|---3-------|----3---------|
E|-5---------|-1--------|-5---------|--5-----------|

e|-----------|----------|-----------|--------------|
B|-----------|----------|-----------|--------------|
G|-----------|----------|------4-2--|-------5-2----|
D|----2---2--|----0--2--|----2----3-|-----2-----3--|
A|---3---3---|---3--3---|---3-------|----3---------|
E|-5---------|-1--------|-5---------|--5-----------|

outro
e|------------|----------|-----------|-------------0-|
B|------------|----------|-----------|-------------1-|
G|------------|----------|-----------|-------4-0---2-|
D|----2---2---|----2--2--|----2--2---|-----2-------2-|
A|---3---3--3-|---3--3--3|---3--3--3-|----3--------0-|
E|-5----------|-3--------|-1---------|--0------------|


Here are the lyrics with the chords:

Verse 1
Am        F5        G5
No hace mucho que l 

Тональность:

Это должно быть в ТОП-листе! - Топ-лист композиций



Назад
Рекомендуем посмотреть другие песни исполнителя «Heroes Del Silencio»:

  • Комменты Fb ()
  • Комменты ВК



Добавить в Избранное Браузера
Сохранить здесь Очистить


x

0


+
-

+
-

-

Авторизация





Зарегистрироваться

M

Дата и время

  • 01:42:51
     

Социальные ссылки


Наши приложения

  • Muzbank App Play Market
  • Muzbank Amazon App